Bowel Flora - Dead Jack Chords & Tabs

 

Dead Jack Chords & Tabs

Bowel Flora Chords & Tabs

Version: 1 Type: Tab 0 ratings
1 star 2 stars 3 stars 4 stars 5 stars
comments

Dead Jack Tab

This tab is from a cool new 3 piece British punk/grunge band called Bowel
Flora, Hope you like the tab!
(Standard ebgdae tuning)

INTRO+VERSE

E-------------------------------------------------------------|
B-------------------------------------------------------------|
G-------------------------------------------------------------|
D-------------6--5--------------------------------------------|X3
A--3--5--6-----------3----------------------------------------|
E-------------------------------------------------------------|

THEN BASS GUITAR RIFF THEN CONTINUE ALONGSIDE BASS GUITAR RIFF

E-------------------------------------------------------------|
B-------------------------------------------------------------|
G-------------------------------------------------------------|
D-------------6--5--------------------------------------------|X3
A--3--5--6----------3-----------------------------------------|
E-------------------------------------------------------------|

BRIDGE - COME STRAIGHT FROM VERSE+INTRO RIFF TO BRIDGE RIFF!

E----------------------------------------------------------------|
B----------------8-/-6-/-4---------------8-/-6-/-4-/-3-/-4-------|
G-----4-/-6-/-8--8-/-6-/-4----4-/-6-/-8--8-/-6-/-4-/-3-/-4-------|
D-----4-/-6-/-8--6-/-4-/-2----4-/-6-/-8--6-/-4-/-2-/-1-/-2-------|
A-----2-/-4-/-6---------------2-/-4-/-6--------------------------|
E----------------------------------------------------------------|
[ Tab from: http://www.guitartabs.cc/tabs/b/bowel_flora/dead_jack_tab.html ]
REPEAT ^^^^^^ 4 TIMES
ON 5TH TIME PLAY LAST PART ONLY OF BRIDGE RIFF FROM 8,8,6
AND REPEAT 3 TIMES

CHOURUS:
E---------------------------------------------------------------------------|
B---------------------------------------------------------------------------|
G---------------------------------------------------------------------------|
D----5-/-7--------------------5-/-7-/-9---5-/-7----5-/-7-/-9-/-7------------|      X2
A----5-/-7-X4---ON 5TH TIME:--5-/-7-/-9---5-/-7-X4-5-/-7-/-9-/-7------------|
E----3-/-5--------------------3-/-5-/-7---3-/-5----3-/-5-/-7-/-5------------|

Then verse and intro riff
Then straight into bridge
Then chorus
Then after the chorus play this:

E----------------------------------------------------------------------|
B----------------------------------------------------------------------|
G----------------------------------------------------------------------|
D----5-/-7-7XXX-7-/-99999999---5-/-7-7XXX-7-/-11-11-11-11-11-11-11-11--|
A----5-/-7-7XXX-7-/-99999999---5-/-7-7XXX-7-/-11-11-11-11-11-11-11-11--|
E----3-/-5-5XXX-5-/-77777777---3-/-5-5XXX-5-/--9--9--9--9--9--9--9--9--| X2
Then chorus 1 and repeat chorus one x4 whilst bass solo is being played over it.
Bass solo (just the verse and intro riff)
Then verse and intro riff
Then chorus 1+2 and finish.
End
Well that's it, this has been tabbed perfectly with no mistakes, and
before I leave you guys to it id like to give a big shout out to the
next big thing in British rock BOWEL FLORA!!!!!!!!

The band is:
Richy rich - lead guitar and vocals
Spud - bassist and vocals
Benjie - drums
Comments