Bound By Chains - Caskate Harvest Chords & Tabs

 

Caskate Harvest Chords & Tabs

Bound By Chains Chords & Tabs

Version: 1 Type: Tab 0 ratings
1 star 2 stars 3 stars 4 stars 5 stars
comments

Caskate Harvest Tab

caskate harvest; bound by chains


into/verse
e------------------------------------------------------------------
b------------------------------------------------------------------
g------------------------------------------------------------------
d------------------------------------------------------------------
a---5---5-5-5-5----5--7--8--7--5----1---1-1-1-1----10--12--13--12--10-
d---5---5-5-5-5----5--7--8--7--4----1---1-1-1-1----10--12--13--12--10-
        p.m.                            p.m. 

interlude
e--------------------------------------------------------------
b--------------------------------------------------------------
g--------------------------------------------------------------
d--------------------------------------------------------------
a----5-5--5-5--5-5--5-5--8-------------------------------------
d----5-5--5-5--5-5--5-5--8-------------------------------------
                         let hang
choral lead
e-------------------------------------------------------------------------------
b-------------------------------------------------------------------------------
g------------------------7-7-7-------------5-5-5-----------------------2-2-2----
d----5-5-5----8-8-8--------------------------------8-8-8------------------------
a----------------------------------6-6-6-----------------------3-3-3------------
d-------------------------------------------------------------------------------
-
[ Tab from: http://www.guitartabs.cc/tabs/b/bound_by_chains/caskate_harvest_tab.html ]
e----------------------------------------------------------------------------------
b----------------------------------------------------------------------------------
g------------------------7-7-7-------------6-6-6--5-5-5--8-8-8--6-6-6--------------
d----5-5-5----8-8-8----------------------------------------------------------------
a----------------------------------6-6-6-------------------------------------------
d----------------------------------------------------------------------------------


choral rythem
e----------------------------------------
b----------------------------------------
g----------------------------------------
d----------------------------------------
a---5--8--12--13--10--8------------------
d---5--8--12--13--10--8------------------
bridge
e-------------------------------------------------------------------------
b-------------------------------------------------------------------------
g-------------------------------------------------------------------------
d-------------------------------------------------------------------------
a----5-5-5--5-5-5---8---1-1-1---------------------------------------------
d----5-5-5--5-5-5---8---1-1-1----0-0--13---0-0---15------------------------


introlude 2
e------------------------------------------------------------------------------------------------------
b------------------------------------------------------------------------------------------------------
g------------------------------------------------------------------------------------------------------
d------------------------------------------------------------------------------------------------------
a------------------------------------------------------------------------------------------------------
d--0-0--13--0-0--15--0-0--13--0-0--15--0-0--13--0-0--15--0-0--13--0-0--15--0-0--15--0-0--12-------------
Comments