Bouncing Souls - Wish Me Well Chords & Tabs

 

Wish Me Well Chords & Tabs

Bouncing Souls Chords & Tabs

Version: 1 Type: Tab 0 ratings
1 star 2 stars 3 stars 4 stars 5 stars
comments

Wish Me Well Tab

##################################################################################
# This file is the author's own work and represents their interpretation of the  #
# song. You may only use this file for private study, scholarship, or research.  #
##################################################################################

-Bouncing Souls-
    -Wish Me Well-
-Tabbed By Ryan Gregg-

About:
Kick ass song, great band, dead easy to play.  Enjoy.

Notes:
pm = Palm Mute

Tunning:
Standard (EADGBE)

Intro / Fill:
Guitar 1 | Slight Distortion:
E|-2-2--5-3-2-----------------2-2--5-3-2---3---5------------------||
A|-------------5--------------------------------------------------||
D|----------------------------------------------------------------||
G|----------------------------------------------------------------||
B|----------------------------------------------------------------||
E|----------------------------------------------------------------||

E|-2-2--5-3-2------------------3----------------------------------||
A|-------------5------------------5--3----------------------------||
D|----------------------------------------------------------------||
G|----------------------------------------------------------------||
B|----------------------------------------------------------------||
E|----------------------------------------------------------------||

Guitar 2 | Distortion:
E|----------------------------------------------------------------||
A|----------------------------------------------------------------||
D|-7-7--7-7-7-----------------7-7--7-7-7--12-12-14----------------||
G|-7-7--7-7-7--7--7-7--7-7-7--7-7--7-7-7--12-12-14----------------||
B|-5-5--5-5-5--7--7-7--7-7-7--5-5--5-5-5--10-10-12----------------||
E|-------------5--5-5--5-5-5--------------------------------------||


E|----------------------------------------------------------------||
A|----------------------------------------------------------------||
D|-7-7--7-7-7-----------------12--9--7---7-7----------------------||
G|-7-7--7-7-7--7--7-7--7-7-7--12--9--7---7-7----------------------||
B|-5-5--5-5-5--7--7-7--7-7-7--10--7--5---5-5----------------------||
E|-------------5--5-5--5-5-5--------------------------------------||
[ Tab from: http://www.guitartabs.cc/tabs/b/bouncing_souls/wish_me_well_tab.html ]
Verse:
Guitar 2 | Distortion:
E|----------------------------------------------------------------||
A|----------------------------------------------------------------||
D|-7-7--------------7-7----12-12-12-12--11--9---------------------||
G|-7-7----7--7-7----7-7----12-12-12-12--11--9---------------------||
B|-5-5----7--7-7----5-5----10-10-10-10---9--7---------------------||
E|--------5--5-5--------------------------------------------------||

E|----------------------------------------------------------------||
A|----------------------------------------------------------------||
D|-7-7--------------7---7-12---12-7---7---------------------------||
G|-7-7----7--7-7----7---7-12---12-7---7-7-------------------------||
B|-5-5----7--7-7----5---5-10---10-5---5-7-------------------------||
E|--------5--5-5------------------------5-------------------------||

Chorus:
Guitar 1 | Slight Distortion:
E|-3-------3---2------------------------2----2----2----3--2-------||
A|----------------------5-----------------------------------5-3---||
D|----------------------------------------------------------------||
G|----------------------------------------------------------------||
B|----------------------------------------------------------------||
E|----------------------------------------------------------------||

E|-3-------3---2--------------------------------------------------||
A|----------------------5--5-5--3-2----3--------------------------||
D|----------------------------------------------------------------||
G|----------------------------------------------------------------||
B|----------------------------------------------------------------||
E|----------------------------------------------------------------||

Guitar 2 | Distortion:
E|----------------------------------------------------------------||
A|----------------------------------------------------------------||
D|-12--12-12--12-12-11--9--9-9--9-9-9--11---11---11---12-11-9-7---||
G|-12--12-12--12-12-11--9--9-9--9-9-9--11---11---11---12-11-9-7---||
B|-10--10-10--10-10--9--7--7-7--7-7-7---9----9----9---10--9-7-5---||
E|----------------------------------------------------------------||

E|----------------------------------------------------------------||
A|----------------------------------------------------------------||
D|-12--12-12--12-12-12--9--9-9--9-9-9--7--7-7--7-7-7--7-7-7-7-7-7-||
G|-12--12-12--12-12-12--9--9-9--9-9-9--7--7-7--7-7-7--7-7-7-7-7-7-||
B|-10--10-10--10-10-10--7--7-7--7-7-7--5--5-5--5-5-5--5-5-5-5-5-5-||
E|----------------------------------------------------------------||

Outro:
Guitar 1 | Clean Or Slight Distortion:                  End On:
E|------------------------------------------------------------|---||
A|------------------------------------------------------------|---||
D|-7----------------------------------------------------------|-7-||
G|-7-(X8)-7------5--------------------------------------------|-7-||
B|-5------7-(X8)-5-(X16)--------------------------------------|-5-||
E|--------5------3--------------------------------------------|---||
  pm----  pm---- pm-----
Comments