Bouncing Souls - True Believers Chords & Tabs

 

True Believers Chords & Tabs

Bouncing Souls Chords & Tabs

Version: 2 Type: Bass Tab 0 ratings
1 star 2 stars 3 stars 4 stars 5 stars
comments

True Believers Bass Tab

-------------------------------------------------------------------------------
			     True Believers - Bouncing Souls
-------------------------------------------------------------------------------

Tabbed By : Hank
e-mail: brodz_10@hotmail.com

Tuning: Standard

Intro1 x1
G|---------------------------------------------------------------------------|
D|----------------5--3-----------------5--5-5-5-5-5-5-5-5--------------------|
A|-------3-------------5--------3--------------------------------------------|
E|--1--------3--------------1------3-----------------------------------------|

Pre Chorus x2
G|------------------7>-------------------------------------------------------|
D|--------------5>-----------------------------------------------------------|
A|------3>-------------------------------------------------------------------|
E|--1>-----3>----------------------------------------------------------------|

Chorus x2
G|------------------7>-------------------------------------------------------|
D|--------------5>-----------------------------------------------------------|
A|------3>-------------------------------------------------------------------|
E|--1>-----3>----------------------------------------------------------------|
[ Tab from: http://www.guitartabs.cc/tabs/b/bouncing_souls/true_believers_btab_ver_2.html ]
Break Down x4/Verse x2
G|-----------|------------------7>-------------------------------------------|
D|-----------|--------------5>-----------------------------------------------|
A|----3------|------3>-------------------------------------------------------|
E|-1-----3---|--1>-----1>----------------------------------------------------|

Pre Chorus x2
G|------------------7>-------------------------------------------------------|
D|--------------5>-----------------------------------------------------------|
A|------3>-------------------------------------------------------------------|
E|--1>-----3>----------------------------------------------------------------|

Chorus x2
G|------------------7>-------------------------------------------------------|
D|--------------5>-----------------------------------------------------------|
A|------3>-------------------------------------------------------------------|
E|--1>-----3>----------------------------------------------------------------|

Outro x1
G|----------|----------------------------------------------------------------|
D|----------|----------------------------------------------------------------|
A|-----3----|-----1----------------------------------------------------------|
E|--1-----3-|--3-----3-------------------------------------------------------|
Comments