Bouncing Souls - The Something Special Chords & Tabs

 

The Something Special Chords & Tabs

Bouncing Souls Chords & Tabs

Version: 1 Type: Bass Tab

The Something Special Bass Tab

   
-------------------------------------------------------------------------------
		     The Special Something - Bouncing Souls
-------------------------------------------------------------------------------

Tabbed By : Basscase
e-mail: basscase@gmail.com

Tuning: EADG (standard)

intro/chorus
G|-----------------------------------------------------------------------------------|
D|--------------7-7-7-7-7-7----------------------------------------------------------|
A|--7-7------------------------------------------------------------------------------|
E|------7-7-7-7----------------------------------------------------------------------|
[ Tab from: http://www.guitartabs.cc/tabs/b/bouncing_souls/the_something_special_btab.html ]
"I want to start again"/verse
G|-----------------------------------------------------------------------------------|
D|-----------------------------------------------------------------------------------|
A|----7-x8---------------------------------------------------------------------------|
E|---------7-x8-5-x8-----------------------------------------------------------------|

Bridge/verse
G|-----------------------------------------------------|
D|---------6-9-7-6---------9-9--------------7-7-7-6----|
A|---7-7-7------------------------------------------9--|
E|-----------------7-7-7-7-----5-5-5-5-5-5-------------|


| /  slide up
|   slide down
| h  hammer-on
| p  pull-off
| ~  vibrato
| +  harmonic
| x  Mute note
===============================================================================