Bouncing Souls - The Nerds The Freaks And The Romantics Chords & Tabs

 

The Nerds The Freaks And The Romantics Chords & Tabs

Bouncing Souls Chords & Tabs

Version: 2 Type: Bass Tab 0 ratings
1 star 2 stars 3 stars 4 stars 5 stars
comments

The Nerds The Freaks And The Romantics Bass Tab

Author/Artist: The Bouncing
souls
Title: The Nerds, The Freaks and the Romantics
Album: Maniacal laughter
Transcribed by: SK8BOB
Email: sk8bob@geocities.com

--------------6777--------------6777------------------------------------------

------5555-77-----------5555-77------5555---------------5555------------------

-5555--------------5555-------------------5555-0000-555------5555-0000-555----

------------------------------------------------------------------------------
[ Tab from: http://www.guitartabs.cc/tabs/b/bouncing_souls/the_nerds_the_freaks_and_the_romantics_btab_ver_2.html ]
------------------|
-045-77777777-554-|
------------------|
------------------|
intro

-----------------667-9-|
---------45-7777-------|
-5555555---------------|
-----------------------|
verse

-|---------------|-----------------|
-|---555---------|-555-------------|
-|555----000-555-|-----555-000-555-|
-|---------------|-----------------|
chorusthing play 4 times each

------------------------|
---45-77---45-7777-55-4-|
-5-------5--------------|
------------------------|
Comments