Bouncing Souls - Sing Along Forever Chords & Tabs

 

Sing Along Forever Chords & Tabs

Bouncing Souls Chords & Tabs

Version: 1 Type: Tab 0 ratings
1 star 2 stars 3 stars 4 stars 5 stars
comments

Sing Along Forever Tab

   
Band: Bouncing Souls
Song: Sing Along Forever
Album: Anchors Away
Tabber: clark@theoddmenout.com

*= mute chord (usually with mute-strum rythm)

Verse 1:
C* 
I'm driving listening to my radio, 
F*
Checking out the airwaves for something to belive in
C*                               F*
Give me something to hold true, give me something to sing about...

Chorus:
G                   F                       C    G
Give me a reason to care, I'll sing along forever

Verse 2:
C*                                 F*
Watered down words covered in song, trying to hide the truth
C*                      F*                           G
That life is beautiful, life is pain, give it to me strait

Chorus 2:
(G)          F                         C   G                    C   G
And touch my heart, I'll sing along forever, I'll sing along forever

I'll sing along forever...
[ Tab from: http://www.guitartabs.cc/tabs/b/bouncing_souls/sing_along_forever_tab.html ]
Solo:
e--------------------------------------------------------------------------|
B--------------------------------------------------------------------------|
G--------------------------------------------------------------------------|
D-5-5-5--5-5-7-5-2-3--3-3-3-3-5-3-2--2-2-2h3p2-----------------------------|
A----------------------------------------------3-3-3--3-3-3p2p0------------|
E---------------------------------------------------------------3----------|

e---------------------------------------------------|
B--------------6-6-6-8-6-5--5-5h6p5-----------------|
G--------------5-5-5-5-5-5--5-5-----4-4-4-4-4-4-4---|
D-----------------------------------5-5-5-5-5-5-5---|
A---------------------------------------------------|
E-3h5-3-0-1--1--------------------------------------|

Reapeat Verse 1

Chorus:
G                   F                        C    G
Give me a reason to care, I'll sing along forever!
G                                  F                         C
Give it to me strait, and touch my heart, I'll sing along forever 

That's it! go to my punk bands site: www.theoddmenout.com
Comments