Bouncing Souls - Serenity Chords & Tabs

 

Serenity Chords & Tabs

Bouncing Souls Chords & Tabs

Version: 2 Type: Bass Tab 0 ratings
1 star 2 stars 3 stars 4 stars 5 stars
comments

Serenity Bass Tab

artist: bouncing souls
song: serenity

intro and verse
G:----------------------------------
D:----------------------------------
A:--------7-77-77775-5-5557-77-7777-
E:-5-5-555--------------------------


G:------------------------------
D:-7--7--7-6-5-4---------4-5-6--
A:---------------7--7--7--------
E:------------------------------

[ Tab from: http://www.guitartabs.cc/tabs/b/bouncing_souls/serenity_btab_ver_2.html ]
end part
G:---------------------------------
D:77777765------65------65------56-
A:--------777777--555555--777777---
E:---------------------------------

end part continued
G:-----------------------------------
D:77777765------65------65----5567---
A:--------777777--555555--7777----5--
E:-----------------------------------



I think I messed up on the end, so send corrections if i did.
send corrections, comments, and questions to bbfan@bellatlantic.net
Comments