Bouncing Souls - No Rules Chords & Tabs

 

No Rules Chords & Tabs

Bouncing Souls Chords & Tabs

Version: 1 Type: Tab 0 ratings
1 star 2 stars 3 stars 4 stars 5 stars
comments

No Rules Tab

   
Band: Bouncing Souls
Song: No Rules
Album: Maniacal Laughter
Tabber: clark@theoddmenout.com

Intro:
Riff 1:
e-------------------------|
B--5-5-5-5-5-5-5-5-5-5-5--|
G-------------------------| x2
D-------------------------|
A-------------------------|
E-------------------------|

Verse 1:
e           g         D
You gotta do what you gotta do,
e                g          D
Sometimes you eat what's in front of you
e                  g           D
Yeah, so we'll drink a beer or two
e                     g              D
It's not what you say, it's what you do

Chorus:
e                   g                 D
NO RULES!! It's not what you say it's what you do
 (Repeat)

Riff 1 x2
[ Tab from: http://www.guitartabs.cc/tabs/b/bouncing_souls/no_rules_tab.html ]
Verse 2: 
Riff 1
Were not "nailed to the X or swill in the gutter
Riff 1
We just follow our hearts from one moment to another
e                g        D
Punk is this, and punk is that
e                   g         D
Words are lame, and words are crap
e              g            D
Inhibitions, repressed and correct
e            g        D
Vegan reich? What the heck!

Chorus x4

Solo:
e----14----15-14-------14----15-14-------14----15-14-------14----15-14----| 
B-17----17-------17-17----17-------17-17----17-------17-17----17-------17-| 
G-------------------------------------------------------------------------|
D-------------------------------------------------------------------------| 
A-------------------------------------------------------------------------|
E-------------------------------------------------------------------------|

e--17--15--14-14-12-10-12-14-12-15-14-12-----14----15-14--|
B-----------------------------------------17----17--------|
G---------------------------------------------------------| 
D---------------------------------------------------------| 
A---------------------------------------------------------| 
E---------------------------------------------------------|

e-----14----15-14-------14----15-14-----|
B--17----17-------17-17----17-------17--|
G---------------------------------------|
D---------------------------------------|
A---------------------------------------|
E---------------------------------------|

e-D-e,e-D-e

That's it! For suggestions, corrections, and requests email me:
oddmenout4@yahoo.com. Check out my band's site: www.theoddmenout.com
Comments