Bouncing Souls - Night Train Chords & Tabs

 

Night Train Chords & Tabs

Bouncing Souls Chords & Tabs

Version: 1 Type: Tab 0 ratings
1 star 2 stars 3 stars 4 stars 5 stars
comments

Night Train Tab

   
-----------------------------------------------------------------------------
		       NIGHT TRAIN - Bouncing Souls
-----------------------------------------------------------------------------
:Bouncing Souls::
.Night Train..

Tabbed by: Sir Johnny Arson
Email: johnnyarson33@yahoo.com

Tuning: Standard

well this is the song night train from anchors aweigh. it's a beautiful song 
i don't know why people don't like it. it's a pretty easy song to play. the
strumming pattern is not difficult to figure out and dashes and x's are described
below. rember to rate... if possible.

Intro
Goodbye to me and you.
Goodbye to the life we knew.
One last long embrace.
Let go and walk on through.
e|-X-----X-----X-----X-----X-----X-|
B|-0-----0-----0-----0-----0-----0-|
G|-1-----2-----1-----4-----1-----4-|
D|-2-----2-----2-----4-----2-----4-|
A|-2-----0-----2-----2-----2-----2-|
E|-0-----X-----0-----X-----0-----X-|
  --------------------------------->

Verse
I'm leaving everything behind for a peace that I can't find.
The ghosts that roam this house
like winter air right through our souls.
And it feels like dying.
It just feels like time to go.
e|-X-----X-----X-----X-----X-----X-----X-----X-|
B|-0-----0-----0-----0-----0-----0-----0-----0-|
G|-1-----2-----1-----4-----1-----2-----1-----4-|
D|-2-----2-----2-----4-----2-----2-----2-----4-|
A|-2-----0-----2-----2-----2-----0-----2-----2-|
E|-0-----X-----0-----X-----0-----X-----0-----X-|
  --------------------------------------------->

e|-X-----X-----X-----X-----X-----X-----X-----X-|
B|-0-----0-----0-----0-----0-----0-----0-----0-|
G|-1-----4-----1-----4-----1-----4-----1-----4-|
D|-2-----4-----2-----4-----2-----4-----2-----4-|
A|-2-----2-----2-----2-----2-----2-----2-----2-|
E|-0-----X-----0-----X-----0-----X-----0-----X-|
  xxxxxxxxxxxxxxxxxxxxxxxxxxxxxxxxxxxxxxxxxxxxx>
[ Tab from: http://www.guitartabs.cc/tabs/b/bouncing_souls/night_train_tab.html ]
Verse
I'm goin down south to dream another dream.
Maybe check out Memphis, Tennessee.
Take the night train and an extra pair of jeans.
Can't think of anything else I really need.
And all my experiences ride with me.
e|-X-----X-----X-----X-----X-----X-----X-----X-|
B|-0-----0-----0-----0-----0-----0-----0-----0-|
G|-1-----2-----1-----4-----1-----2-----1-----4-|
D|-2-----2-----2-----4-----2-----2-----2-----4-|
A|-2-----0-----2-----2-----2-----0-----2-----2-|
E|-0-----X-----0-----X-----0-----X-----0-----X-|
  --------------------------------------------->

e|-0-----0-----0-----0-|
B|-0-----0-----0-----0-|
G|-1-----2-----1-----4-|
D|-2-----2-----2-----4-|
A|-2-----0-----2-----2-|
E|-0-----X-----0-----X-|
  --------------------->

e|-X-----X-----X-----X-----X-----X-----X-----X-|
B|-0-----0-----0-----0-----0-----0-----0-----0-|
G|-1-----4-----1-----4-----1-----4-----1-----4-|
D|-2-----4-----2-----4-----2-----4-----2-----4-|
A|-2-----2-----2-----2-----2-----2-----2-----2-|
E|-0-----X-----0-----X-----0-----X-----0-----X-|
  xxxxxxxxxxxxxxxxxxxxxxxxxxxxxxxxxxxxxxxxxxxxx>

Verse
This town is dead to me.
And I can't stop chasing my dreams.
I love you more than anything,
but what you want I could never be.
e|-0-----0-----0-----0-----0-----0-----0-----0-|
B|-0-----0-----0-----0-----0-----0-----0-----0-|
G|-1-----2-----1-----4-----1-----2-----1-----4-|
D|-2-----2-----2-----4-----2-----2-----2-----4-|
A|-2-----0-----2-----2-----2-----0-----2-----2-|
E|-0-----X-----0-----X-----0-----X-----0-----X-|
  xxxxxxxxxxxxxxxxxxxxxxxxxxxxxxxxxxxxxxxxxxxxx>

e|-0-----0-----0-----0-|
B|-0-----0-----0-----0-|
G|-1-----4-----1-----4-|
D|-2-----4-----2-----4-|
A|-2-----2-----2-----2-|
E|-0-----X-----0-----X-|
  xxxxxxxxxxxxxxxxxxxxx>

I love you more than anything,
but only alone can we both be free.
e|-0-----0-----0-----0-----0-----0-|
B|-0-----0-----0-----0-----0-----0-|
G|-1-----4-----1-----4-----1-----4-|
D|-2-----4-----2-----4-----2-----4-|
A|-2-----2-----2-----2-----2-----2-|
E|-0-----X-----0-----X-----0-----X-|
  xxxxxxxxxxxxxxxxxxxxxxxxxxxxxxxxx>

Interlude
e|-X----------------|
B|-0----------------|
G|-1----------------|
D|-2----------------|
A|-2----------------|
E|-0----------------|
  xxxxxxxxxxxxxxxxxx>
 play chord 'til outro begins

Outro
Goodbye to me and you.
Goodbye to the life we knew.
Wipe the tears from your eyes.
Let go and walk on through.
e|-X-----X-----X-----X-----x----X-|
B|-0-----0-----0-----0-----0----0-|
G|-1-----2-----1-----4-----4----1-|
D|-2-----2-----2-----4-----4----2-|
A|-2-----0-----2-----2-----2----2-|
E|-0-----X-----0-----X-----X----0-|
  xxxxxxxxxxxxxxxxxxxxxxxxxx>  --->

| /  slide up
| \  slide down
| h  hammer-on
| p  pull-off
| ~  vibrato
| +  harmonic
| x  Mute note
| x> Keep strumming in both up and down directions
| -> Strum Chord Only Once
=============================================================================
Comments