Bouncing Souls - Low Life Chords & Tabs

 

Low Life Chords & Tabs

Bouncing Souls Chords & Tabs

Version: 1 Type: Bass Tab 0 ratings
1 star 2 stars 3 stars 4 stars 5 stars
comments

Low Life Bass Tab

Author/Artist: The bouncing souls
Title: Low life
Album: The bouncing souls
Transcribed by: SK8BOB
Email: sk8bob@geocities.com

---------------------------------------------
-----222--------222----------222--------222----
-0-2-----22-0-2-----22-0-2-----22-0-2-----22-
---------------------------------------------
intro

---------------------------------------------
-2222-------2222-------2222--------------------
--------0000-------2222------0000-2222222-------
---------------------------------------------
verse
[ Tab from: http://www.guitartabs.cc/tabs/b/bouncing_souls/low_life_btab.html ]
--------------------------
--------------2222-----------
-0000-2222------0000-0000-
--------------------------
chorus

------------------------------------------------------------------------------

-2-2-2-2-2-2-2----------------2-2-2-2-2-2-2-------------------------------------

-----------------2-2-2-2-2-2-2-----------------2-2-2-2-2-2-2-0-0-0-0-0-0-0-2-2-2---

------------------------------------------------------------------------------

interlude

-------------------------------------
-----------2-2-2-2-2-2-2---------------
-2-2-2-2----------------2-2-2-2-2-2-2-
-------------------------------------
that's about it have fun buh bye

Comments