Bouncing Souls - Lean On Sheena Chords & Tabs

 

Lean On Sheena Chords & Tabs

Bouncing Souls Chords & Tabs

Version: 1 Type: Tab

Lean On Sheena Tab

   
-------------------------------------------------------------------------------
			     Lean on Sheena - The Bouncing Souls
-------------------------------------------------------------------------------
Tabbed by: Chaz, The Box aka Basscase
Email: Basscase@gmail.com

Tuning: EADGBe (standard)

intro/chorus  [palm muted] [guitar 1]
e|---------------------------------------------------------------------------|
B|---------------------------------------------------------------------------|
G|--4-----------------------9-------4----------------------------------------|
D|--4-------4-------6-------9--x14--4-------4-------6-------2----------------|
A|--2--x14--4--x14--6--x14--7-------2--x14--4--x14--6--x14--2--x14-----------|
E|----------2-------4-----------------------2-------4-------0----------------|

intro [guitar 2] [come in at "better yet..."]
e|------------------------------|---7----------------------------------------|
B|------------------------------|--------------------------------------------|
G|--4---------------------------|--------------------------------------------|
D|--4-------4-------6-------2---|--------------------------------------------|
A|--2-------4-------6-------2---|--------------------------------------------|
E|----------2-------4-------0---|--------------------------------------------|

[ Tab from: http://www.guitartabs.cc/tabs/b/bouncing_souls/lean_on_sheena_tab.html ]
Verse
e|---------------------------------------------------------------------------|
B|---------------------------------------------------------------------------|
G|--4-----------------------9-------4----------------------------------------|
D|--4-------4-------6-------9--x14--4-------4-------6-------2----------------|
A|--2--x14--4--x14--6--x14--7-------2--x14--4--x14--6--x14--2--x14-----------|
E|----------2-------4-----------------------2-------4-------0----------------|

[eventually kick in hard rock stylw without

Over Fills [mess around with these notes on the last chorus]
e|--7-77777-14-7-12-7-11-7---------------------------------------------------|
B|--------------------------------------end-on-------------------------------|
G|----------------------------------------------4----------------------------|
D|----------------------------------------------4----------------------------|
A|----------------------------------------------2----------------------------|
E|---------------------------------------------------------------------------|

***BUY THE BOUNCING SOULS - THE GOLDEN RECORD*** 
Dont freeload it off the net!

| /  slide up
| \  slide down
| h  hammer-on
| p  pull-off
| ~  vibrato
| +  harmonic
| x  Mute note
===============================================================================