Bouncing Souls - Lamar Vannoy Chords & Tabs

 

Lamar Vannoy Chords & Tabs

Bouncing Souls Chords & Tabs

Version: 1 Type: Bass Tab 0 ratings
1 star 2 stars 3 stars 4 stars 5 stars
comments

Lamar Vannoy Bass Tab

Author/Artist: The bouncing souls
Title: Lamar vannoy
Album: Maniacal laughter
Transcribed by: SK8BOB
Email: sk8bob@geocities.com

---------------------
------5555-4444-2222-
-5555----------------
---------------------
intro

--------------------------------------
--------------------------------------
-555555555555-7777-5555555555555
--------------------------------------------5555-
verse
[ Tab from: http://www.guitartabs.cc/tabs/b/bouncing_souls/lamar_vannoy_btab.html ]
----------------------------------------------
---------------------------------4------------
---------5555--------------55555---5----------
-3-5-7-5------5555-3-5-7-5-----------3-5-7-5--
chorus

-|----------|-----------------------------------------
-|----------|-------44445545-77-54-------4444-5-7-9-7-
-|5555555-0-|-55555----------------55555--------------
-|----------|-----------------------------------------
Bass solo:first thing play 4 times

Comments