Bouncing Souls - Kids And Heroes Chords & Tabs

 

Kids And Heroes Chords & Tabs

Bouncing Souls Chords & Tabs

Version: 2 Type: Tab

Kids And Heroes Tab

   
Song: Kids and Heroes
Band: Bouncing Souls
Album: Anchors Aweigh

[Verse 1]

 Hey, where have you gone...
e|-------------------------------0---|
B|-----1--------0--------1---------1-|
G|-------0--------0----2---2---2-----| x5
D|---2---------------3-------3-------|
A|-3----------2----------------------|
E|----------3------------------------|

 Guess you were never here from the start...
e|------------------------------------3-|
B|-----1------------------------------0-|
G|-------0----------------------------0-|
D|---2--------------------------------0-|
A|-3----------------------------------2-|
E|------------------------------------3-|

 It's all a question of heart...
e|------------------------0-|
B|------------------------1-|
G|------------------------0-|
D|------------------------2-|
A|------------------------3-|
E|--------------------------|


[Chorus]

C  G                 F
 Hey, where have you gone?
F                   C           G         F
 You used to be the one that we looked up to
F            C             G         F
 Seemed like nothing could break you down
F                  C          G            F
 How high was your price? And was it worth it?
F                     C           G           F
 Nothing in life is a sure bet anyway, you're gone
F                          C        G
 Guess you were never here from the start
G       F                           C
 In the end, it's all a question of heart

 G F F C G F F

[ Tab from: http://www.guitartabs.cc/tabs/b/bouncing_souls/kids_and_heroes_tab_ver_2.html ]
[Verse 2]
C  G               F
 Hey, where did it go?
F              C               G             F
 Everything we fought for, and everything it meant
F              C      G   F
 Maybe we were just naive
F              C                G          F
 But I still believe, there are only a few things
F                      C         G         F
 That really belong to me, who I am, who I was
F                C  G F
 And who I wanna be
F            C  G F F
 Who I wanna be


[Solo]

e|--------------1-1-1-3-0--0------------------0--------------------|
B|---------------------------3-3-0-1--1-1-1-3----0-1-1-0-1-1-0-1-1-|
G|-----------------------------------------------------------------|
D|---2-0-2-3-------------------------------------------------------|
A|-3---------------------------------------------------------------|
E|-----------------------------------------------------------------|

e|-----0-0---0-0---0-0-0-0-0---------------------0-0---0-0---0-0-0-|
B|-0-3-----3-----3-----------0-1-1-0-1-1-0-1-1-3-----3-----3-------|
G|-----------------------------------------------------------------|
D|-----------------------------------------------------------------|
A|-----------------------------------------------------------------|
E|-----------------------------------------------------------------|

e|-0-0--0-|
B|------1-|
G|------0-|
D|------2-|
A|------3-|
E|--------|


[Verse 3]

 Hey, where have I gone...
e|-------------------------------0---|
B|-----1--------0--------1---------1-|
G|-------0--------0----2---2---2-----| x3
D|---2---------------3-------3-------|
A|-3----------2----------------------|
E|----------3------------------------|

 Never knowing all along...
e|-------------------3-|
B|-----1-------------0-|
G|-------0-----------0-|
D|---2---------------0-|
A|-3-----------------2-|
E|-------------------3-|

 That the truth was right here in my own song...
e|----------0-----------------------------0-|
B|----------1-----------------------------1-|
G|----------2-----------------------------0-|
D|----------3-----------------------------2-|
A|----------------------------------------3-|
E|------------------------------------------|