Bouncing Souls - Kicked In The Head Chords & Tabs

 

Kicked In The Head Chords & Tabs

Bouncing Souls Chords & Tabs

Version: 1 Type: Bass Tab 0 ratings
1 star 2 stars 3 stars 4 stars 5 stars
comments

Kicked In The Head Bass Tab

   
-------------------------------------------------------------------------------
		 Kicked in the Head - The Bouncing Souls
-------------------------------------------------------------------------------

Tabbed By : Basscase
e-mail: Basscase@gmail.com

Tuning:

Verse, Chorus, Ending
G|---------------------------------------------------------------------------|
D|------------------------------------------------7--------------------------|
A|---------------3232------------------X4------------------------------------|
E|-12/5-55555555--------55555555-3333-------5--------------------------------|
[ Tab from: http://www.guitartabs.cc/tabs/b/bouncing_souls/kicked_in_the_head_btab.html ]
Between Verses/Choruses
G|---------------------------------------------------------------------------|
D|---------------------------------------------------------------------------|
A|---------------------------------------------------------------------------|
E|---5----5----5----5----5--5--5--5------------------------------------------|

Breakdown
G|------------------------------5--------------------------------------------|
D|------66-77----66-77---66-77----7-6-7--------------------------------------|
A|---77--------77------77----------------------------------------------------|
E|---------------------------------------------------------------------------|

Very Ending
G|---------------------------------------------------------------------------|
D|---------------------------------------------------------------------------|
A|---------------------------------------------------------------------------|
E|-------5/1-------5/1-------------------------------------------------------|


| /  slide up
| \  slide down
| h  hammer-on
| p  pull-off
| ~  vibrato
| +  harmonic
| x  Mute note
===============================================================================
Comments