Bouncing Souls - I Get Lost Chords & Tabs

 

I Get Lost Chords & Tabs

Bouncing Souls Chords & Tabs

Version: 1 Type: Tab 0 ratings
1 star 2 stars 3 stars 4 stars 5 stars
comments

I Get Lost Tab

   
Band: Bouncing Souls
Song: I Get Lost
Album: Anchors Away
Tabber: clark@theoddmenout.com

()= bass only note
*= pm note/chord

Intro:
Riff 1                      x4
e-----------------------------|
B-----------------------------|
G--7-7-7----------------------|
D--7-7-7--7--7--5-5-5--7-7-7--|
A--5-5-5--7--7--5-5-5--7-7-7--|
E---------5--5--3-3-3--5-5-5--|

Verse 1:
(D)                          (A)
I don't wanna do anything to prove myself to you,
                               (D)
I don't wanna be something I'm not
      D*
Every time I try, everytime I chase
A*
Something that's wrong or right
G*            D*
I get lost in my mind,
G*            D*
I get lost in that lie
G*              D*         A
I get lost with the idea I have something to prove

Pre-chorus:
G             D    G           D
All I have to do is make my my way
G               D                  A*
Make the best of whatever comes my way...

Chorus:
                  D   G  A
Whatever comes my waaay-aaay x2
                  
Whatever comes my way!
[ Tab from: http://www.guitartabs.cc/tabs/b/bouncing_souls/i_get_lost_tab.html ]
Riff 2: (all muted I think)                                 x2   
e-------------------------------------------------------------|
B-------------------------------------------------------------|
G-------------------------------------------------------------|
D--7-7-7------------------------------------------------7-----|
A--5-5-5-5-5-4-4--5-5-5-4-4-5-5--7-7-7-7-7-7-7-7-7-7-7--5--7--|
E--------5-5-5-5--3-3-3-3-3-3-3--5-5-5-5-5-5-5-5-5-5-5-----5--|

Riff 3:              x8
e--14--14--12--12------|
B--15--15--15--15--15--|
G--14--14--14--14--14--| this isn't completely right, but it's mostly, you 
D----------------------| have to kind play with the rythm to get it, but
A----------------------| these should be the right chords (this was hard 
E----------------------| as heck to figure out so gimme a break ;)

Verse 2:
(D)                 (A)     
I don't want anything this world can give me
                               (D)
A lot of stuff makes me feel so empty
      D*
Every time I try, everytime I chase
A*
Something I want from you
G*            D*
I get lost in my mind,
G*            D*
I get lost in that lie
G*              D*         A
I get lost with the idea I have something to lose

Pre-chorus, Chorus x4

Riff 2 x2

Riff 3 x8

 D

That's it! for suggestions, corrections, and requests email me:
oddmenout4@yahoo.com.  Check out my band's sit: www.theoddmenout.com
Comments