Bouncing Souls - Hopeless Romantic Chords & Tabs

 

Hopeless Romantic Chords & Tabs

Bouncing Souls Chords & Tabs

Version: 2 Type: Bass Tab 0 ratings
1 star 2 stars 3 stars 4 stars 5 stars
comments

Hopeless Romantic Bass Tab

   
Song: Hopeless Romantic		

Band: the Bouncing Souls	

Album: Hopeless Romantic	

tabbed by: Albino (albino@csionline.net)

http://www.divineweb.com/tabs







Verse

G:---------------------------------------------------------------

D:---------------------------------------------------------------

A:-------------------------7>------------------------------------

E:-0>--5>--0>--5>--7>--5>------5>--------------------------------



Chorus

G:---------------------------------------------------------------

D:-----7-9--9-7>--6----------------------------------------------

A:--7>--------------9--9-7>--------------------------------------

E:---------------------------------------------------------------


[ Tab from: http://www.guitartabs.cc/tabs/b/bouncing_souls/hopeless_romantic_btab_ver_2.html ]
Cool Part A

G:---------------------------------------------------------------

D:---66-99-66----66-99-66--77-66-------77-66---------------------

A:-77---------77-----------------99-77-------99-77---------------

E:---------------------------------------------------------------



Cool Part B

G:---------------------------------------------------------------

D:--9>--7--7-6--6----------9>------7-----7>----------------------

A:----------------9--7>-------7--7---7-7-------------------------

E:---------------------------------------------------------------







Verse        X1

Chorus       X4

Cool Part A  X2

Cool Part b  X1

Verse        X1

Chorus       X4

Cool Part A  X2

Cool Part b  X1
Comments