Bouncing Souls - Eastside Mags Chords & Tabs

 

Eastside Mags Chords & Tabs

Bouncing Souls Chords & Tabs

Version: 1 Type: Chords 0 ratings
1 star 2 stars 3 stars 4 stars 5 stars
comments

Eastside Mags Chords

   
Song: Eastside mags
Artist: Bouncing Souls
Album: Self-Titled
Tabbed by: Alec Salseda (misfit809@hotmail.com)

INTRO
G------------------------------------------------|
D------------------------------------------------|
A-555-222---------555-222--------555-222---------|
E---------333-555---------333-555--------333-555-|

G---------------------------------|
D---------------------------------|
A-555-222---------555-222---------|
E---------333-555---------333-555-|

Verse
G---------------------------------------|
D---------------------------------------|
A-5-----------44-5-------------22----44-|
E-----33-5------------33-5-3----5-------|

chours
G------------------------------------------------|
D------------------------------------------------|
A-555-222---------555-222--------555-222---------|
E---------333-555---------333-555--------333-555-|

G-----------------|
D-----------------|
A-555-222---------|
E---------333-555-|
[ Tab from: http://www.guitartabs.cc/tabs/b/bouncing_souls/eastside_mags_crd.html ]
Verse
G---------------------------------------|
D---------------------------------------|
A-5-----------44-5-------------22----44-|
E-----33-5------------33-5-3----5-------|

chours
G------------------------------------------------|
D------------------------------------------------|
A-555-222---------555-222--------555-222---------|
E---------333-555---------333-555--------333-555-|

G-----------------|
D-----------------|
A-555-222---------|
E---------333-555-|

Verse
G---------------------------------------|
D---------------------------------------|
A-5-----------44-5-------------22----44-|
E-----33-5------------33-5-3----5-------|


Chours
G------------------------------------------------|
D------------------------------------------------|
A-555-222---------555-222--------555-222---------|
E---------333-555---------333-555--------333-555-|

G-----------------|
D-----------------|
A-555-222---------|
E---------333-555-|

Outro
G--------------|
D--------------|
A-444444444444-
E--------------
Comments