Bouncing Souls - Argyle Chords & Tabs

 

Argyle Chords & Tabs

Bouncing Souls Chords & Tabs

Version: 1 Type: Bass Tab 0 ratings
1 star 2 stars 3 stars 4 stars 5 stars
comments

Argyle Bass Tab

Author/Artist: Bouncing souls
Title: Argyle
Album: Maniacal laughter
Transcribed by: SK8BOB
Email: sk8bob@geocities.com

------------------------------------------------
------------4-----------54-------------------------------54-
-555-555---555-555----222-222-45-333-5555555----
------------------------------------------------
INTRO/OUTRO
[ Tab from: http://www.guitartabs.cc/tabs/b/bouncing_souls/argyle_btab.html ]
-------------------------------------------------------------------
-------------------------------------------------------------------
-------------------------------------------------------------------5-
-3333333-5555555-7777777-55555555-333333-555555---
LAST PART OF INTRO

------------------------------------------
----44-55-7----44-55-7--------------------
-55---------55----------------------------
------------------------------77777777-55555555--
VERSE

----------------------
----------------------
-333333333-5555555555-
----------------------
CHORUS not exactly right, but this is just as good i think


Comments