Bouncing Souls - Anchors Aweigh Chords & Tabs

 

Anchors Aweigh Chords & Tabs

Bouncing Souls Chords & Tabs

Version: 1 Type: Tab 0 ratings
1 star 2 stars 3 stars 4 stars 5 stars
comments

Anchors Aweigh Tab

This song is very easy to play.Im not sure this is the exact number of strums but you'll get the idea.

Intro:
E---44444444---55555555--444444--777--55555555------------------|
B---44444444---55555555--444444--777--55555555------------------|
G---66666666---55555555--666666--999--55555555------------------|
D---66666666---77777777--666666--999--77777777------------------|
A---44444444---77777777--444444--777--77777777------------------|
E--------------55555555---------------55555555------------------|

     Distortion kick in
E------------------------------------------------|
B------------------------------------------------|
G-------------4-444444--6-6666666----------------|
D---2-222222--4-444444--6-6666666---7-7777777----|
A---2-222222--2-222222--4-4444444---7-7777777----|
E---0-000000------------------------5-5555555----|

[ Tab from: http://www.guitartabs.cc/tabs/b/bouncing_souls/anchors_aweigh_tab.html ]
Verse:
E---44444444---55555555--444444--777--55555555---------------|
B---44444444---55555555--444444--777--55555555---------------|
G---66666666---55555555--666666--999--55555555---------------|
D---66666666---77777777--666666--999--77777777---------------|
A---44444444---77777777--444444--777--77777777---------------|
E--------------55555555---------------55555555---------------|

Chorus:
E----------------------------------------------------|
B----------------------------------------------------|
G-------------4-444444--6-6666666--------------------|
D---2-222222--4-444444--6-6666666---7-7777777--------|
A---2-222222--2-222222--4-4444444---7-7777777--------|
E---0-000000------------------------5-5555555--------|

Clean

E------------------------------------------------|
B------------------------------------------------|
G-------------4-444444--6-6666666----------------|
D---2-222222--4-444444--6-6666666---7-7777777----|
A---2-222222--2-222222--4-4444444---7-7777777----|
E---0-000000------------------------5-5555555----|


then do the same thing again with distortion and thats it .


BOUNCING SOULS KICK ASS!!!!!!
Comments