Boudewijn De Groot - Avond Chords & Tabs

 

Avond Chords & Tabs

Boudewijn De Groot Chords & Tabs

Version: 1 Type: Bass Tab 0 ratings
1 star 2 stars 3 stars 4 stars 5 stars
comments

Avond Bass Tab

#---------------------------------PLEASE NOTE-----------------------------#
# This file is the author's own work and represents their interpretation  #
# of the song. You may only use this file for private study, scholarship, #
# or research.                                                            #
#-------------------------------------------------------------------------#


Boudewijn de groot - Avond (dutch song!)
basstabs by Erwin Keijzer
(Erwinkeij@hotmail.com)


INTRO + EERSTE COUPLET GEEN BAS!

[Eerste refrein] (want je kunt niets zeker weten...)
G:---------------|---------------|---------------|---------------|X1 
D:---------------|---------------|---------------|---------------|
A:12-------------|---------------|---------------|---------------|
E:-------1-------|8-------3------|1-------8------|---------------|


[Tweede couplet] (en als je sīmorgens opstaat....)
G:---------------|---------------|---------------|---------------| 
D:---------------|---------------|---------------|---------------|
A:---------------|---------------|---------------|---------------|
E:5--5-5--5--5-5-|8--8-8--8--8-8-|5--5-5--5--5-5-|1--1-1--3--3-3-|

G:---------------|---------------|---------------|X1
D:---------------|---------------|---------------|
A:3--3-3--3--3-3-|8--8-8--5--5-5-|---------------|
E:------3-------3|---------------|12--12-12--12--12-12

[ Tab from: http://www.guitartabs.cc/tabs/b/boudewijn_de_groot/avond_btab.html ]
[Tweede refrein] (want je kunt niets zeker weten...)
G:---------------|X1 |---------------|---------------|X2
D:---------------|   |---------------|---------------| 
A:---------------|   |---------------|---------------|
E:5--5-5--8--8-8-|   |8--8-8--3--3-3-|1--1-1--8------|


[Muzikaal intermezzo]
G:---------------|---------------|X2
D:---------------|---------------|
A:---------------|---------------|
E:12-----12------|10------8------|

G:---------------|X3  G:---------------|X1
D:---------------|    D:---------------|
A:---------------|    A:---------------|
E:7----5-----12--|    E:7-7--5-5---12--|


(Ik doe de lichten uit)                              
G:---------------|---------------|X3 |---------------|---------------|X1
D:---------------|---------------|   |---------------|---------------| 
A:---------------|---------------|   |---------------|---------------| 
E:5--5-50-5--5-03|5--5-50-3--3-3-|   |5--5-50-5--5-5-|10--10-10--12--12-12

(De dingen in de kamer...)           (maar de dingen in de kamer zouden)
|---------------|--------------------|---------------|---------------|X1
|---------------|--------------------|---------------|---------------| 
|---------------|--------------------|12--12-12------|---------------| 
|5--5-3--3-1-1-0|08--8-8-10-12--12-12|---------7--7-7|9--9-9--4--4-4-|


[Laatste refrein]
G:---------------|X1 ---------------|---------------|2X 
D:---------------|   ---------------|---------------| 
A:--------8--8-8-|   ---------------|---------------| 
E:8--8-8---------|   8--8-8--3--3-3-|1--1-1--8--8-8-|

G:---------------|X1 ---------------|---------------|2X 
D:---------------|   ---------------|---------------| 
A:--------8--8-8-|   ---------------|---------------| 
E:8--8-8---------|   8--8-8--3--3-3-|1--1-1--8--8-8-|

Ik hoop dat ik het duidelijk genoeg heb neergezet! mail gerust voor comments!
Comments