Botnledja - Eurovisa Chords & Tabs

 

Eurovisa Chords & Tabs

Botnledja Chords & Tabs

Version: 1 Type: Bass Tab 0 ratings
1 star 2 stars 3 stars 4 stars 5 stars
comments

Eurovisa Bass Tab

   
Song: EuroVisa
Artist: Botnledja
Tabbed by: Aron Logi HjaltalĂ­n (Iceland) aronlogi@hotmail.com

There are some bass fills that I didn't tab because i think it should be to the player to add his own improvisation and fills. Enjoy it!

Bass starts 0:40
[ Tab from: http://www.guitartabs.cc/tabs/b/botnledja/eurovisa_btab.html ]
Verse
G|---------------------------------|
D|---------------------------------|
A|-3-3-3-3-3-3-3-3-----------------|
E|-----------------6-6-6-6-5-5-5-5-|


Chorus/Bass solo
G|---------------------------------|
D|----------------0--0-0-2-3-2-2---|
A|-0--0-0-2-3-2-2------------------|
E|---------------------------------|

End
G|---|
D|---|
A|-3-|
E|---|

Song structure:

Guitar Intro
Verse x2
Chorus x5
Verse x4
Bass solo x4
Verse x4
End x1
Comments