Both Legs Broken - Headache Chords & Tabs

 

Headache Chords & Tabs

Both Legs Broken Chords & Tabs

Version: 1 Type: Tab 0 ratings
1 star 2 stars 3 stars 4 stars 5 stars
comments

Headache Tab

Both Legs Broken

Headache

This is an easy tab from the new and biggest band in hertfordshire

(Verse)
[ Tab from: http://www.guitartabs.cc/tabs/b/both_legs_broken/headache_tab.html ]
E: -----------------1-----------------1-----------------1---------------------3----------------------------------------
B: -----1-----------1----------1------1-----1-----------1---------------------3----------------------------------------
G: -----------------2-----------------2-----------------2--------------------------------------------------------------
D: -----2-----------3----------2------3-----2-----------3--------------------------------------------------------------
A: -----3-----------3----------3------3-----3-----------3---------------------2----------------------2---------------2-
E: -----------------1-----------------1-----------------1---------------------3----------------------3-------------3---
  (1) I bodgered a badger, it bit my wadger, we dont have to prove ourselves with stupid immature tales i just thought you should know
  (2) We're harder than (chigga-chigga) slim shady, cos he is (chigga-chigga) gay-gaydy, we think you should ask yourselves how talented do you have to be to write garage music?
  (3) We have got a friend called Kit, he's a transylvanian unibrow git his body odor smells of shit but we're still his friends because he gives us money.
  (4) Je suis un scouser, Je prend a pantalon rouge.  Reuben Strange loves everybody except for ms le coz cos shes a bitch!

(Chorus)
E:-----------------------------------------------------------------
B:-----------------------------------------------------------------
G:-----------------------------------------------------------------
D:---------3---3----5-5-5-5----3---3----5-5-5-5----3---3----5-5-5-5
A:---------3---3----5-5-5-5----3---3----5-5-5-5----3---3----5-5-5-5
E:---------1---1----3-3-3-3----1---1----3-3-3-3----1---1----3-3-3-3  
  I've got a fucking headache, got a fucking headache, fucking headache

(Solo)

E:----------------------------------------------------------------------------------------------------
B:----------------------------------------------------------------------------------------------------
G:--19b---19b--17--18----------18------------17--18----------18----------------17-18----------18------
D:--------------------18----18-----12b---15b--------18----18----15h17p15h17p15-------18----18---------
A:-----------------------18----------------------------18-------------------------------18------------
E:----------------------------------------------------------------------------------------------------
Comments