Botch - Afgamistam Chords & Tabs

 

Afgamistam Chords & Tabs

Botch Chords & Tabs

Version: 1 Type: Tab 0 ratings
1 star 2 stars 3 stars 4 stars 5 stars
comments

Afgamistam Tab

   
botch- afgamistam

tabbed by- tom arnstein

drop d

/ - slide to
h - hammer on

enjoy!

bass starts 0.00
G|---------------------|
D|---------------------|
A|---------------------|
D|---6-6-6-6--2-2-2-2--|

0.08 guitar 1
e|----------------------------------|
B|----------------------------------|
G|----------------------------------|
D|------------1-4-2-2---2-2-2/4-----|
A|-------3-6----------4---------6---|
D|-6-6------------------------------|

0.16 guitar 2- very quiet
e|----------------------------------|
B|----------------------------------|
G|----------------------------------|
D|----------------------------------|
A|---10-10--------------------------|
D|---10-10---8-8-8-8--6-6-----------|
[ Tab from: http://www.guitartabs.cc/tabs/b/botch/afgamistam_tab.html ]
0.23 guitar 3- very quiet
e|---------------------------------------------|
B|---------------------------------------------|
G|---------------------------------------------|
D|----6--6--6--6...-----and sometimes:--4h6-6--|
A|---------------------------------------------|
D|---------------------------------------------|

1.07 guitar 4
e|-------------------|
B|-------------------|
G|--8--5\----3--1/---|
D|-------------------|
A|-------------------|
D|-------------------|

2.21 guitar 1
e|--------------|
B|--------------|
G|--------------|
D|-1-2-1---1-2--|
A|--------------|
D|--------------|

watch rhythm
e|------------------------------------|
B|------------------------------------|
G|--------1---1---------1---------1---|
D|----2-1-------2-1---1---2---2-1-----|
A|------------------------------------|
D|------------------------------------|
Comments