Boston Symphony Orchestra - Fountain Of Dreams Chords & Tabs

 

Fountain Of Dreams Chords & Tabs

Boston Symphony Orchestra Chords & Tabs

Version: 2 Type: Tab 0 ratings
1 star 2 stars 3 stars 4 stars 5 stars
comments

Fountain Of Dreams Tab

Fountain Of Dreams - Super Smash Brothers Melee
Preformed by The Boston Symphony Orchestra
Originally Written by Nintendo of America
Tabbed by: Matthew Edwards
July 14, 2002
2:25 PM


NOTE: This is better off learned when 1) Knowing the song itself, 2) Knowing this version thoroughly, and 
Familiarizing yourself with the different instruments played in this version and where in the song they 
heard the strongest (To better understand how I tabbed it).

(Begin after Intro)
[ Tab from: http://www.guitartabs.cc/tabs/b/boston_symphony_orchestra/fountain_of_dreams_tab_ver_2.html ]
Play 2x
 4--------------------------------------4------------------------------------|
 --4---------------------------------------4---------------------------------|
 ------5-4-2--2-4-5-2-----------------------5-7-9--2-4-5-2-4-5-2-------------|
 --------------------------5-8-5---------------------------------------------|
 ----------------------------------------------------------------------------|
 ----------------------------------------------------------------------------|
(This will be played thrice look for the * to play again)
 ----------------------------------------------------------------------------|
 ----------------------------------------------------------------------------|
 ----------------------------------------------------------------------------|
 ----------------------------------------------------------------------------|
 ----------------------------------------------------------------------------|
 -1-2-3-4-5-4-3-2-1-2-3-5-7-9-12---------------------------------------------|

(Small Strings Interlude)

*

Play Twice Through (** - Play again)
 -----1------3-----1----5-----1----3---1-3-5--------------------------------------|
 -----0------0-----0----0-----0----0---0-0-0--------------------------------------|
 -----0------0-----0----0-----0----0---0-0-0--------------------------------------|
 --0------0-----0----0-----0-----0----0-------------------------------------------|
 ---------------------------------------------------------------------------------|
 ---------------------------------------------------------------------------------|

(Woodwind Interlude)

*
(String Interlude)

**

(Woodwind's End the song)
Comments