Boston - Piece Of Mind Chords & Tabs

 

Piece Of Mind Chords & Tabs

Boston Chords & Tabs

Version: 1 Type: Tab 0 ratings
1 star 2 stars 3 stars 4 stars 5 stars
comments

Piece Of Mind Tab

|--------------|---6-7-9-------|------------------|----------------|
|--------------|---------------|------------------|----------------|
|-0-4-6--------|---------------|---5-6-7h9p7-6----|-4-6-7-7--------|
|--------------|--------4-6-7--|-7--------------7-|----------------|
|---------7-9--|---------------|------------------|---------7-4-0--|
|---------5-7--|---------------|------------------|----------------|


|--------------|---------------|---2--------------|----------------|
|--------------|---------------|----5-3h5p3-2-----|----------------|
|--------------|-11-9-7--------|-2------------2---|-4-6-7-7--------|
|-7-4-0-4---7--|--------4---2--|------------------|--------------0-|
|---------7-5--|----------2-0--|------------------|----------7-4-0-|
|---------5----|----------0----|------------------|----------5-2---|



|--------------|---------------|-12-14-12-10h12p10-9---|-9-10-10------|
|--------------|---------------|--------------------10-|10-10-10------|
|-----------7--|-11-9-7--------|-----------------------|--------------|
|-7-4-0-4-7----|--------4-6-7--|-----------------------|--------7-4-0-|
|--------------|---------------|-----------------------|--------------|
|--------------|---------------|-----------------------|--------------|


|--------------|---------------|---2---------------|-----------------|
|--------------|---------------|-----5-3h5p3-2-----|-----------------|
|-----------7--|-11-9-7--------|-2-------------2---|-4-6-7-7---------|
|-7-4-0-4-7----|--------4-6-7--|-------------------|---------------0-|
|--------------|---------------|-------------------|---------7-5-4-0-|
|--------------|---------------|-------------------|---------5-3-2---|

[ Tab from: http://www.guitartabs.cc/tabs/b/boston/piece_of_mind_tab.html ]
|--------------------------------------------------------------------|
|-7-7-7-8-10-10--8-7-5-7-8-8--8-7-5-3h5p3-2----------7-9/10-10-------|
|-------------------------------------------2--4-6-7-----------------|
|--------------------------------------------------------------------|
|--------------------------------------------------------------------|
|--------------------------------------------------------------------|


|--------------------------------------------------------------------|
|-7-7-7-8-10-10--8-7-5-7-8-8--8-7-5-3h5p3-2--------------------------|
|-------------------------------------------2--4-6-7-----------------|
|----------------------------------------------------4-6/7-7---------|
|--------------------------------------------------------------------|
|--------------------------------------------------------------------|



|-----------------------------------------------|
|-----------------------------------------------|
|-7-7-7-6-4-4-4--9-11b12r11-9-7-9b11r9-7-6------|
|------------------------------------------7----|
|-----------------------------------------------|
|-----------------------------------------------|

|----------------------14-15-17--|-------14-12-14b15r14-12-10-9-9-10-10-|
|-------15-15-14-15-17-----------|-15-17-----------------------10-10-10-|
|-14-14--------------------------|--------------------------------------|
|--------------------------------|--------------------------------------|
|--------------------------------|--------------------------------------|
|--------------------------------|--------------------------------------|




|-----------|
|-5---6-5---|
|---5-----5-|
|-----------|
|-----------|
|-----------|

Guitar 2
|-----------|
|-----------|
|-----------|
|-5---------|
|-3---------|
|-----------|

Then do this:
|-----------|
|-6/8-5-----|
|-------5---|
|-----------|
|-----------|
|-----------|

And finally, fade away doing this:
|------------------|---------|
|-6-8b10r8-6-8-6-5-|-6/8-5---|
|------------------|-------5-|
|------------------|---------|
|------------------|---------|
|------------------|---------|
Comments