Boston - Party Chords & Tabs

 

Party Chords & Tabs

Boston Chords & Tabs

Version: 1 Type: Tab 2 ratings
1 star 2 stars 3 stars 4 stars 5 stars
comments

Party Tab

Boston - Party

by Andreas Samuelsson assen@haga.serva.net  email me !!

Just can't figure out the solo, plz someone more skilled, DO IT !!!

Standard tuning

Dont know the intro, kind of fuzzy, but I do know its played over the chords:

e--9----7----5---                       -----------0-------------
B--9----7----5---                       ---------3---3-----------
G--9----7----5---   Then comes this     -------0----------0------
D--9----7----5---                       -----4---------4---------
A--0----0----0---                       ---0---------------------
E----------------                       -------------------------

The main riff

e----------------------------------------------0--0--0--0----------
B----------------------------------------------5--5--3--3----------
G----------------------------------------------0--0--0--0----------
D-2--2-4p2---2---2-2-------------2--2-4p2---2--5--5--4--4----------
A-0--0-0---3b0---0-0---------0-3-0--0-0---3b0--0--0--0--0----------
E----------------------2-0-3---------------------------------------
                       
e----------------------------------------------0--0--0--0----------
B----------------------------------------------5--5--3--3----------
G----------------------------------------------0--0--0--0----------
D-2--2-4p2---2---2-2-------------2--2-4p2---2--5--5--4--4----------
A-0--0-0---3b0---0-0---------0-3-0--0-0---3b0--0--0--0--0----------
E----------------------2-0-3---------------------------------------
                       

Then 0:47
[ Tab from: http://www.guitartabs.cc/tabs/b/boston/party_tab.html ]
 I'm gettin' ready for a ...
e------------------------------------------------------------------------------------
B------------------------------------------------------------------------------------
G------------------------------------------------------------------------------------
D------------------------------------------------------------------------------------
A-2-2-4-2-2-2-4-2-2-2-4-2-2-4--7-9-9-7-9--12-12-14-12-15-14--7-7-9-7-9--2-2-4-2-2-2-4
E-0-0-0-0-0-0-0-0-0-0-0-0-0-0--5-5-5-5-5--10-10-10-10-10-10--5-5-5-5-5--0-0-0-0-0-0-0

 0:58
 you...
e---------------------------------------------------------------
B---------------------------------------------------------------
G---------------------------------------------------------------
D--5-5-5-5-5-5-5-5--7-6-7-6-7-6-2-------------------------------
A--3-3-3-3-3-3-3-3--5-4-5-4-5-4-0-------------------------------
E---------------------------------------------------------------

Chorus: 1:01

 Baby...

e---------------------------------------------------------------
B---------------------------------------------------------------
G-2-2--4b6r4p2-----2-2--5-5--7--4b6r4p2-------2-2---------------
D-2-2---------4-2--2-2--5-5--7----------4-2---2-2---------------
A-0-0--------------0-0--3-3--5----------------0-0---------------
E--------------------------------------------------3-2-3-2-0----

 Baby...                                      party, party, party
e-------------------------------------------------------------------------------
B-------------------------------------------------------------------------------
G-2-2--4b6r4p2-----2-2--5-5--7--4b6r4p2-------2-2--7-7---12-12------------------
D-2-2---------4-2--2-2--5-5--7----------4-2---2-2--7-7---12-12------------------
A-0-0--------------0-0--3-3--5----------------0-0--5-5---10-10------------------
E---------------------------------------------------------------2-3-2-3-2-0-----
Comments