Boston - Morw Than A Feeling Chords & Tabs

 

Morw Than A Feeling Chords & Tabs

Boston Chords & Tabs

Version: 1 Type: Bass Tab 1 rating
1 star 2 stars 3 stars 4 stars 5 stars
comments

Morw Than A Feeling Bass Tab

G|-------------||
D|-------------|| x5
A|-5-0-3-2-----||
E|---------3---||


G|----------------------------------------||
D|---------2-2-0---0-0--------------------||
A|-5-0-3-2-------2-----2-0----------------||
E|----------------------------------------||


G|----------------------------------------||
D|-----------2-2-2-2-2-/-0-0--------------||  x5
A|-------3-3------------------------------||
E|-3-3-/----------------------------------||


G|---------------------------2-4-2-4h4-4-4-4-4-2-2-2-2-0-0-0-0----||
D|-------3-3-1-2-2-4-2-4-2----------------------------------------||
A|-3-3-/-------------------0--------------------------------------||
E|----------------------------------------------------------------||


G|---------2-2-2-2-2-2-2-2----------------------------------------||
D|-4-4-4-4--------------------------------------------------------||
A|-------------------------0-0-0-0-0-0-0-0------------------------||
E|----------------------------------------------------------------||
[ Tab from: http://www.guitartabs.cc/tabs/b/boston/morw_than_a_feeling_btab.html ]
  guitar solo
G|-------------------2-2-2---------0-0-0-0------------------------||
D|-0-5-5-5-5-4-4-4-4-------0-0-0-0---------4-4-4-2---0-0-5-5-5-5--||
A|-------------------------------------------------0--------------||
E|----------------------------------------------------------------||


G|-4-4-4-4-6-6-6-7-7-4-4-----2-2----------------------------------||end
D|-----------------------2-2-----5-5-5-5-5-5-5-5-5-4-2-4----------||of
A|----------------------------------------------------------------||solo
E|----------------------------------------------------------------||

  pause for guitar and vocals
G|----------------------------------------------------------------||
D|----------------------------------------------------------------||
A|-5-5-5-5-5-5-5-5-3-3-3-2-2-2-3-3-5-5-5-5-0-5-3-2-3-5-5-5-5-0-2--||
E|----------------------------------------------------------------||


G|---------------------------------------------2-0----------------||
D|---------------5-4-0-------0-5-5-5-5-0-5-3-2--------------------||
A|-3-2-3-5-5-0-5-------3-2-3-----------------------0-3-5----------||
E|----------------------------------------------------------------||


G|--------------------------------||
D|-0-0-0-0-0-0-0-0-0-0-0-0-0-0----||
A|--------------------------------||
E|--------------------------------||


G|--------------------------------||
D|-----------2-2-2-2-2-/-0-0------|| x10                                  
A|-------3-3----------------------|| then repeat to fade
E|-3-3-/--------------------------||
Comments