Boston - More Than A Feeling Chords & Tabs

 

More Than A Feeling Chords & Tabs

Boston Chords & Tabs

Version: 8 Type: Tab 0 ratings
1 star 2 stars 3 stars 4 stars 5 stars
comments

More Than A Feeling Tab

   
----------------------------------------------------------------------------
			     More Than A Feeling (Solo) - Boston
----------------------------------------------------------------------------
Tabbed by: El Jordo
Email: im_making_waffles_07_edgefestwasawsome@hotmail.com

Tuning: E A D G B E

e|----------------|-------------------------|----------------------------|
B|----------------|-------------------------|----------------------------|
G|------------11~-|-11-12-11h12p11-------14-|-11-12-11----------------11-|
D|---11-12-14-----|----------------14-12----|----------14h16p14-12-14----|
A|----------------|-------------------------|----------------------------|
E|----------------|-------------------------|----------------------------|
[ Tab from: http://www.guitartabs.cc/tabs/b/boston/more_than_a_feeling_tab_ver_8.html ]
e|----------------------------------------------|------------------------|
B|----------------------------------------------|------------------------|
G|-11-12-11h12p11---------------------------11~-|11-12-11h12p11-------14^|
D|----------------14-12-14^-14^-12-11----12-----|----------------14-12---|
A|------------------------------------12--------|------------------------|
E|----------------------------------------------|------------------------|

e|----------------------|------------------------------------------------|
B|----------------------|------------------------------------------------|
G|-14-12-11h12p11----11~|-11-12-11-------------------11------------------|
D|----------------14----|----------14h16p14-12-14-12----14h16p14-12-11-12|
A|----------------------|------------------------------------------------|
E|----------------------|------------------------------------------------|

e|-------------------------------------------------------------------------|
B|-14h15pp14p12------------------------------------------------------------|
G|-------------------------------------------------------------------------|
D|-------------------------------------------------------------------------|
A|-------------------------------------------------------------------------|
E|-------------------------------------------------------------------------|

| ^  bend
| /  slide up
| \  slide down
| h  hammer-on
| p  pull-off
| ~  vibrato
| +  harmonic
| x  Mute note
===============================================================================
Thats It! I'm possitive its rite so have fun! Any questions or comments?   e-mail me!
Comments