Boston - More Than A Feeling Chords & Tabs

 

More Than A Feeling Chords & Tabs

Boston Chords & Tabs

Version: 6 Type: Tab 0 ratings
1 star 2 stars 3 stars 4 stars 5 stars
comments

More Than A Feeling Tab

   
-------------------------------------------------------------------------------
		     Boston - More Than A Feeling (Solo)
-------------------------------------------------------------------------------

Tabbed by:Tim Howell
Email:NukeTheDucks@hotmail.com

Tuning:E A D G B E

e|---------------------------------------------------------------------------|
B|------------7---7-8--7h8p7-------8b10b8------------------------------------|
G|---6--7--9------------------9-7--------------------------------------------|
D|---------------------------------------------------------------------------|
A|---------------------------------------------------------------------------|
E|---------------------------------------------------------------------------|

e|---------------------------------------------------------------------------|
B|------8--7--5h7p5-----5h7--------------------------------------------------|
G|---7---------------7-------------------------------------------------------|
D|---------------------------------------------------------------------------|
A|---------------------------------------------------------------------------|
E|---------------------------------------------------------------------------|

e|---------------------------------------------------------------------------|
B|------8--7h8p7-------------------------------------------------------------|
G|---7------------9--7--9b10b9--7--6-----------------------------------------|
D|---------------------------------------------------------------------------|
A|---------------------------------------------------------------------------|
E|---------------------------------------------------------------------------|
[ Tab from: http://www.guitartabs.cc/tabs/b/boston/more_than_a_feeling_tab_ver_6.html ]
e|---------------------------------------------------------------------------|
B|------8--7--7-8--7h8p7--------10b12----------------------------------------|
G|------------------------9--7-----------------------------------------------|
D|---7-----------------------------------------------------------------------|
A|---------------------------------------------------------------------------|
E|---------------------------------------------------------------------------|

e|---------------------------------------------------------------------------|
B|---10--8--7h8p7-----7------------------------------------------------------|
G|-----------------9---------------------------------------------------------|
D|---------------------------------------------------------------------------|
A|---------------------------------------------------------------------------|
E|---------------------------------------------------------------------------|

e|---------------------------------------------------------------------------|
B|------8--7--5h7p5-----5----------------------------------------------------|
G|---7---------------7-------------------------------------------------------|
D|---------------------------------------------------------------------------|
A|---------------------------------------------------------------------------|
E|---------------------------------------------------------------------------|

e|---------------------------------------------------------------------------|
B|---------------------------------------------------------------------------|
G|---7/11--9h11p9------------------------------------------------------------|
D|-----------------12--11--12------------------------------------------------|
A|---------------------------------------------------------------------------|
E|---------------------------------------------------------------------------|

e|---------------------------------------------------------------------------|
B|---14h15p14------17b19-----------------------------------------------------|
G|-------------16------------------------------------------------------------|
D|---------------------------------------------------------------------------|
A|---------------------------------------------------------------------------|
E|---------------------------------------------------------------------------|

| B  bend
| /  slide up
| \  slide down
| h  hammer-on
| p  pull-off
| ~  vibrato
| +  harmonic
| x  Mute note
Comments