Boston - More Than A Feeling Chords & Tabs

 

More Than A Feeling Chords & Tabs

Boston Chords & Tabs

Version: 4 Type: Tab 0 ratings
1 star 2 stars 3 stars 4 stars 5 stars
comments

More Than A Feeling Tab

------------------------------------------------------------
                  Boston More Then A Feeling 
------------------------------------------------------------
[ Tab from: http://www.guitartabs.cc/tabs/b/boston/more_than_a_feeling_tab_ver_4.html ]
E -------------4-------3------------------------------------
B ------3-------------------3-------------------------------
G ----------2-------------------2-----------0--------0------
D --0-------------0---------------------0---------0---------
A ---------------------------------3----------2-------------
E ----------------------------------------------------------


E ----------------------------------------------------------
B ----------------------------------------------------------
G -----0----------------------------------------------------
D ----------------------------------------------------------
A ----------------------------------------------------------
E ---3------------------------------------------------------

 By Bunion 

comment- sounds great to me see what you think! have fun.
Comments