Boston - Hitch A Ride Chords & Tabs

 

Hitch A Ride Chords & Tabs

Boston Chords & Tabs

Version: 1 Type: Bass Tab 0 ratings
1 star 2 stars 3 stars 4 stars 5 stars
comments

Hitch A Ride Bass Tab

Artist: Boston
Song Hitch A Ride
Album: Boston

Tab Legend:
x = muted note
/ = slide up to
\ = slide down to
h = hammer on

Parts:
Verse 1 (only acoustic guitar)
Chorus
¨Pre-Verse 1¨
Verse 2
Chorus
Organ Solo
¨Pre-Verse 2¨
Chorus
Outro (Guitar Solo/Riff)


As usual, listen to the song to get the timings right


Chorus:
| ------1-3------1-0------------------------------------ |
|.--1-1-----1--------3-1-3---------1--------------------.|
|.-------------------------1---3-3---3-1-----------0-1--.|
| ---------------------------------------3--1-1-3------- |


¨Pre-Verse 1¨:
|---------6--------------------------------------------------|
|-----6-8----8--6------------------------8----8\------/8-----|
|--6---------------8-8-6-6-5-5-------------------6-----------|
|------------------------------8-8-6----------------------6--|


Verse:                      x4
| -------------------------- |
|.----8-6---5---------------.|
|.---------------6----7-8---.|
| --6----------6------------ |


Organ Solo:
| ------------------------------------|
|.---------5-3-3-3-5----5-3---3---3---|
|.------------------------------5---3-|
| --3--3--------------3---------------|

 ------------------------------------- |
 ---------5-------------5-3---3---3---.|
 -------------------------------5---3-.|
 --3--3-----1-1-1-3--3---------------- |

|--------------------------|
|--------------------------|
|--3--3-3--x-1-1--1--1-----|
|-----------------------1--|


¨Pre-Verse 2¨:                  x3
| ------------------------------ |
|.------8--8-6--6-5-------------.|
|.------------------8--6--5-----.|
| --6------------------------6-- |

[ Tab from: http://www.guitartabs.cc/tabs/b/boston/hitch_a_ride_btab.html ]
Outro/Guitar Solo:
|--/8--| ---------------------------------------------------------- |
|------|.----------5-6-8----8-10-8-6--5--5-6-5--------5-5-6-6-8-8--.|
|------|.--6-----6--------6--------------------8--6-6--------------.|
|------| ------6--------------------------------------------------- |

|----------------------------------13---10---8--------------------------|
|---------5--6--8-----8---10---8---------------10-8--------5---6---8----|
|--6---6------------6---6----6----------------------6--8-6---6---6---6--|
|-----------------------------------------------------------------------|

|--------------------------------------------------------|
|-------------6-----------------------------5---6---8----|
|--6---6-6--6-----------------6--------6--6---6---6---6--|
|----------------6---6-6---4----3--3---------------------|

|----------------------------------------------------|
|--------5-6-8-----------6--------------5---666-8-8--|
|--6---6-------4--4-4--4---3-------6--6---6----------|
|------------------------------4---------------------|

|----------------------------------------------------------|
|------------8---------------------6-5--------5-5-6-6------|
|--6--6-6--6---6---6-6--6--6--6-6------8--6-6--------------|
|-----------------------------------------------------4-6--|

|--------------------------------------------|
|-------------8---------------------5--6--8--|
|--6---6-6--6---4--4-4--4--3-----6-----------|
|-----------------------------4--------------|

|-------------------------------------------------------------------|
|-------------8------------8-----------------------5--6-5-6--5------|
|--6---6-6--6---6---6-6--6---6---6-6--6--6-4----6--------------8----|
|--------------------------------------------6-------------------6--|

|------------------------------------------------------/8-h8-h8----------|
|-------------8------------8-6---5-6-------/8---------------------6------|
|--6---6-6--6---6---6-6--6--------------6------6-6--------------------6--|
|------------------------------------6-----------------------------------|
Comments