Boston - Foreplay Long Time Chords & Tabs

 

Foreplay Long Time Chords & Tabs

Boston Chords & Tabs

Version: 2 Type: Bass Tab

Foreplay Long Time Bass Tab

   
G)------------)
D)------------)
A)2--2---2----)
E)------------)
                           x3
G)------------------------)
D)-------------------2-3--)
A)1--343-1------3-4-1-----)
E)---------4-3-1----------)
                         Do this all through the song
G)------------------------)
D)------------------------)
A)------------------------)
E)1-1-1-1-1-1-1-1-1-1-1-1-)



[ Tab from: http://www.guitartabs.cc/tabs/b/boston/foreplay_long_time_btab_ver_2.html ]