Boston - Foreplay Long Time Chords & Tabs

 

Foreplay Long Time Chords & Tabs

Boston Chords & Tabs

Version: 1 Type: Bass Tab 0 ratings
1 star 2 stars 3 stars 4 stars 5 stars
comments

Foreplay Long Time Bass Tab

Boston
Foreplay Long time Intro
Bass Tab
Standard Tuning EADG

/ = Slide up
\ = Slide down
~ = Let ring
h = Hammer on
p = Pull off
* = Sticcato


    Intro (0:11)
G ----------------|
D ----------------|
A ----------------|
E --6*-6*-6~------|


   Riff 1 (0:24)
G -----------------------------|
D -------------------------3---|   X2
A ---3-4-3---------3-4---6-----|
E -6-------6-4-2-1-----6-------|

[ Tab from: http://www.guitartabs.cc/tabs/b/boston/foreplay_long_time_btab.html ]
   Riff 2 (0:35)
G -------------------------------------------------------------|
D --------------------------------3----------------------------|
A ---3---3-4---4---4----------4-6-------4---------4-------4----|
E -6---6-----4---4---4-6--1-2-------6-4----4-6--4---4-6-4------|

   Riff 2 (Cont.)
G --------------------|
D --------------------|
A ----------6-8-------|
E -4-6-4--2-----6-----|

   Riff 1 (except hammer 4 to 6 at the beginning)


   Riff 2 (Let last note ring out)


   End on
G ------------|
D ------------|
A ------------|
E ----8~------|
Comments