Boston - Feelin' Satisfied Chords & Tabs

 

Feelin' Satisfied Chords & Tabs

Boston Chords & Tabs

Version: 1 Type: Tab 1 rating
1 star 2 stars 3 stars 4 stars 5 stars
comments

Feelin' Satisfied Tab

e------------------------------------------------------------------
b------------------------------------------------------------------
g------------------------------------------------------------------
d-------------9---9------------------------------------------------
a--9--9--9----7---7----9------7------------------------------------
e--7--7--7-------------7------5------------------------------------



the intro above on the very first part you play it more than three times 
it's really more like 5 or something but if you listen to the cd you'll 
get it.  The verse goes something like this.
[ Tab from: http://www.guitartabs.cc/tabs/b/boston/feelin_satisfied_tab.html ]
e-------------------------------------------------------------------
a-------------------------------------------------------------------
d-------------------------------------------------------------------
g--------------------------7---7--7---------------------------------
b---9---9---9---9-----7----5---5--5----7----------------------------
e---7---7---7---7-----5----------------5-----the pre-chorus is this-


e--------------------------------------------------------------------
a--------------------------------------------------------------------
d--------------------------------------------------------------------
g---9---9----------------6----4----2---------------------------------
b---7---7----9-----7-----4----2----0---2------9----7----6---4---2----
e------------7-----5-------------------0------7----5----4---2---0----

that about does it, I didn't tab exactly how many times to strum,
but you can figure that out.  Just listen to the cd, and trust me 
this is correct tabbing.  If you have any questions or changes,
e-mail me at Dmatthews65@aol.com.
Comments