Boston - Dont Look Back Chords & Tabs

 

Dont Look Back Chords & Tabs

Boston Chords & Tabs

Version: 2 Type: Tab 0 ratings
1 star 2 stars 3 stars 4 stars 5 stars
comments

Dont Look Back Tab

   
#---------------------------------YOU BEST NOTE-------------------------------#
#This file is the author's own work and represents their interpretation of the#
#song. You may only use this file for private study, scholarship, or research.#
#-----------------------------------------------------------------------------#

Boston

Dont Look Back 

by Brian S

Intro : Rythym
e------------------------------------------------|
b---14h15--15--14--x-x-x-x-x-x--7----9--h10-p9---|
g---14---------14--x-x-x-x-x-x--7----9---9---9---|
d---14h16--16--14--x-x-x-x-x-x--7----9---9---9---|
a------------------------------------------------|
e------------------------------------------------|

Intro : Solo
e-------------------12b--12b--------------------------|
b-12b--12b-12br-10------------14-15p14h17-14-15p14h17-|
g-----------------------------------------------------|
d-----------------------------------------------------|
a-----------------------------------------------------|
e-----------------------------------------------------|

e----------------------------------------------|
b--15p14---------------------------------------|
g---------16vvbvvv--16b---r16--14-----------14-|
d----------------------------------16-14h16----|
a----------------------------------------------|
e----------------------------------------------|
				
Verse : Intro Chords 
[ Tab from: http://www.guitartabs.cc/tabs/b/boston/dont_look_back_tab_ver_2.html ]
Pre Chorus				     * 4th time
e-----3-----------------3------------------------|
b-------3---3-------------3--------3-------------|
g---------2--------0--------0----0-----------1---|
d--0-----------------0----------0------------2---|
a---------------3--------------2-------------2---|
e--------------------------------------------0---|


Pre Chorus lick
e-----------------------------------------------10bvvvvv--|
b-5---5--7--5--7b--5-------8b10-8b10-8b10--9--------------|
g---------------------------------------------9-----------|
d---------------------------------------------------------|
a---------------------------------------------------------|
e---------------------------------------------------------|

Chorus Lick (Arranged 2 Guitars)
e--------------------------------------------------------------|
b--------------------------------------------------------------|
g------4--5--/7--4---------------------------/9--7---5--4^5^4--|
d--/7------------------5--9b10r9--7^9^7------------------------|
a------2--3--/5--2-----------------------7---/7--5---3--2^3^2--|
e--/5------------------3--7b8r7---5^7^5--0---------------------|
  ______1________ __________2_________
e|---------------|--------------------|
b----------------------------------5--|
g----------------------------------6--|
d------5-9b10r9----7----5--9b10r9-----|
a--5-------------------------------7--|
e--5-------------------------------5--|

Right Before Chorus   A      F      G

The Solo is the chorus lick, 2x, than up octave, than 2x, than up octave...
and so on.

Comments