Borknagar - Colossus Chords & Tabs

 

Colossus Chords & Tabs

Borknagar Chords & Tabs

Version: 1 Type: Tab 0 ratings
1 star 2 stars 3 stars 4 stars 5 stars
comments

Colossus Tab

   
                      Borknagar- Colossus
                     From the Album - Quintessence
              Copyright 2000 - Century Media
                     Version 1.0 - September- 2001
Transcribed by: Mike B. 

For Questions, Comments, Newest Version, or Corrections contact
Steve S.: at Setherial99@AOL.com

..  - palm mute          /  - slide up to
 \  - slide down to      ~  - vibrato
 h  - hammer on          b  - bend
 p  - pull off            Suffixes for bend
                          ph - pinch harmonic
                           f - full bend    h - half bend
*  - see comment           r - release      t - tap bend
X  - percussion mute       ~ - vibrato bend
@  - slight palm mute     () - ghost note, sustained note

Standard E tuning

Collassus

A1
|--------------------------------------------------------------------|
|--------------------------------------------------------------------|
|--------2-------------2-------------0-------------2-----------------|
|----2-----2-------5-----5-------7-----7-------5-----5---------------| 
|--0---0-----0---3---3-----3---5---5-----5---3---3-----3-------------|
|--------------------------------------------------------------------|
A2                                                                   |
|--------------------------------------------------------------------|
|------------------------------------------5-------------------------|
|--7--5---4-5--7--4h5p4-----7--5---4-5--7----------------------------| 
|------------------------7-------------------------------------------| 
|--------------------------------------------------------------------|
|--------------------------------------------------------------------|
|                                                                    |
|--------------------------------------------------------------------|
|--------------------------------------------------------------------|
|-----------5-----5--7--5--4--5--7/9---------------------------------|
|-----5--7-----7-----------------------------------------------------| 
|--7-----------------------------------------------------------------|
|--------------------------------------------------------------------|
|                                                                    |
|---------------7--8--12---------------------------------------------|
|--8--7--8--10------------10--10--13--10--10-------------------------|
|--------------------------------------------------------------------|
|--------------------------------------------------------------------|
|--------------------------------------------------------------------|
|--------------------------------------------------------------------|

B1                     Different endings to the riff...
|-----------------||----------------|--------|-----------------------|
|-----------------||----------------|--------|-----------------------|
|--2-----4-----5--||--5-4-4--4-3-3--|--7--9--|--7-5-7--9-7-5---------|
|--2-----4-----5--||--5-4-4--4-3-3--|--7--9--|--7-5-7--9-7-5---------|
|--0-----2-----3--||--3-2-2--2-1-1--|--5--7--|--5-3-5--7-5-3---------|
|--------2-----3--||--3-2-2--2-1-1--|--5--7--|--5-3-5--7-5-3---------|
B2                                                                   |
|----------------------|---------------------------------------------|
|----------------------|-----------------5---------------------------|
|--7--5--4---4-5--4----|--7--5---4-5--7------------------------------|
|----------------------|---------------------------------------------|
|----------------------|---------------------------------------------|
|----------------------|---------------------------------------------|

C1
|-----------------8-10-12--12h13p12p10-12--12-8-10-----8-------------|
|--10----8-10-12-----------------------------------12----10-12-8-----|
|--------------------------------------------------------------------|
|--------------------------------------------------------------------|
|--------------------------------------------------------------------|
|--------------------------------------------------------------------|
|                                                                    |
|--------------------------------------------------------------------|
|--10----8-------8-10------------------------------------------------|
|-----10---9--10-----------------------------------------------------|
|--------------------------------------------------------------------|
|--------------------------------------------------------------------|
|--------------------------------------------------------------------|
C2                                                                   |
|--------------------------------------------------------------------|
|-------17\12---17\13---12-13--15-13-15--12br(12)-13-----------------|
|--14----------------------------------------------------------------|
|--------------------------------------------------------------------|
|--------------------------------------------------------------------|
|--------------------------------------------------------------------|
|                                                                    |
|--------------------------------------------------------------------|
|-------17\12---17\13---12-13--15-13-15--17-15-13--------------------|
|--14----------------------------------------------------------------|
|--------------------------------------------------------------------|
|--------------------------------------------------------------------|
|--------------------------------------------------------------------|
[ Tab from: http://www.guitartabs.cc/tabs/b/borknagar/colossus_tab.html ]
D1
|----------------------------------|---------------------------------|
|----------------------------------|---------------------------------|
|--9-99-9--9-99-9--9-99-9--9-99-9--|---------------------------------|
|--9-99-9--9-99-9--9-99-9--9-99-9--|--7-77-7--7-77-7--7-77-7--7-77-7-|
|--7-77-7--7-77-7--7-77-7--7-77-7--|--9-99-9--9-99-9--9-99-9--9-99-9-|
|----------------------------------|---------------------------------|
|                                                                    |
|----------------------------------|---------------------------------|
|----------------------------------|---------------------------------|
|--9-99-9--9-99-9--9-99-9--9-99-9--|--7-77-7--7-77-7--12-------------|
|--9-99-9--9-99-9--9-99-9--9-99-9--|--7-77-7--7-77-7--12----9--------|
|--7-77-7--7-77-7--7-77-7--7-77-7--|--5-55-5--5-55-5--10----9--------|
|----------------------------------|------------------------7--------|
|                                                                    |
|--------------------------------|-----------------------------------|
|--------------------------------|-----------------------------------|
|--------------------------------|-----------------12-11-12--14-12-14|
|-9-99-9--9-99-9--9-99-9--9-99-9-|-7-77-7--7-77-7--12-11-12--14-12-14|
|-7-77-7--7-77-7--7-77-7--7-77-7-|-9-99-9--9-99-9--10-9--10--12-10-12|
|--------------------------------|-----------------10-9--10--12-10-12|

E1
|------------------------------------|-------------------------------|
|------------------------------------|-------------------------------|
|--16-1616-16--9-99-9--9-99-9--9-99--|--7-77-7--7-77-7--5------------|
|--16-1616-16--9-99-9--9-99-9--9-99--|--7-77-7--7-77-7--5------------|
|--14-1414-14--7-77-7--7-77-7--7-77--|--5-55-5--5-55-5--3------------|
|--14-1414-14------------------------|-------------------------------|
|                                                                    |
|--------------------------------------------------------------------|
|--------------------------------------------------------------------|
|-9-99-9--999--11-1111-11-111111--12-1212-12--121212--11-1111-11/16--|
|-x-xx-x--xxx--x--x-x--x--x-x-x---x--x-x--x---x-x-x---x--x-x--x-/x---|
|-7-77-7--777--9--9-9--9--9-9-9---10-1010-10--101010--9--9-9--9-/14--|
|--------------------------------------------------------------------|
|                                                                    |
|--------------------------------------------------------------------|
|--------------------------------------------------------------------|
|-9-99-9--999--11-1111-11-111111--12-1212-12--121212--14-1414-14/16--|
|-x-xx-x--xxx--x--x-x--x--x-x-x---x--x-x--x---x-x-x---x--x-x--x-/x---|
|-7-77-7--777--9--9-9--9--9-9-9---10-1010-10--101010--12-1212-12/14--|
|--------------------------------------------------------------------|

F1
|----------------------------------|---------------------------------|
|----------------------------------|---------------------------------|
|----------------------------------|--7-77-7--777--12----------------|
|--9-99-9--9-99-9--9-99-9--9-99-9--|--7-77-7--777--12--9-------------|
|--7-77-7--7-77-7--7-77-7--7-77-7--|--5-55-5--555--10--9-------------|
|----------------------------------|-------------------7-------------|
|                                                                    |
|----------------------------------|---------------------------------|
|----------------------------------|---------------------------------|
|----------------------------------|--7-77-7--555--5-----------------|
|--9-99-9--9-99-9--9-99-9--9-99-9--|--7-77-7--555--5-----------------|
|--7-77-7--7-77-7--7-77-7--7-77-7--|--5-55-5--333--3-----------------|
|----------------------------------|---------------------------------|

G1
|-----------|-----------|-----------|--------------------------------|
|-----------|-----------|-----------|--------------------------------|
|--6-6-6-6--|--6-6-6-6--|--4-4-4-4--|--2-2-2-2-----------------------|
|--6-6-6-6--|--6-6-6-6--|--4-4-4-4--|--2-2-2-2-----------------------|
|--4-4-4-4--|--4-4-4-4--|--2-2-2-2--|--0-0-0-0-----------------------|
|-----------|-----------|-----------|--------------------------------|

H1
|--------------------|--------------------|--------------------------|
|--------------------|--------------------|--------------------------|
|--------------------|--------------------|--5--7--5/12--------------|
|--2--4-----------5--|--2--4-----------5--|--5--7--5/12--------------|
|--2--4--2-2-2-2--5--|--2--4--2-2-2-2--5--|--3--5--3/10--------------|
|--0--2--0-0-0-0--3--|--0--2--0-0-0-0--3--|--------------------------|
|        . . . .              . . . .                                |
|--------------------------------------------------------------------|
|--------------------------------------------------------------------|
|--------------------------------------------------------------------|
|----------7-------9-9-9--9~-----------------------------------------|
|--10-9-7----10-9----------------------------------------------------|
|--------------------------------------------------------------------|

I1
|---------------|---------------|--------------|---------------------|
|---------------|---------------|--------------|---------------------|
|--4------------|---------------|--5--7--5/12--|---------------------|
|--4--2--5/7-7--|--5--7/9-9--5--|--5--7--5/12--|--------7------9-9-9-|
|--2--2--5/7-7--|--5--7/9-9--5--|--3--5--3/10--|-10-9-7---10-9-------|
|-----0--3/5-5--|--3--5/7-7--3--|--------------|---------------------|

J1
|--------0--|--------0--|--------0--|----------0---------------------|
|--------0--|--------0--|--------0--|----------0---------------------|
|--9--9-----|--9--9-----|--5--5-----|--5/7--7------------------------|
|--9--9-----|--9--9-----|--5--5-----|--5/7--7------------------------|
|--7--7-----|--7--7-----|--3--3-----|--3/5--5------------------------|
|--0--0-----|--0--0-----|-----------|--------------------------------|
J2 (Lead)                                                            |
|--12-------------------------|--------------------------------------|
|--15b--15b--15--12-----------|--------------------------------------|
|--------------------14--12~--|--14p12----16p12----------------------|
|-----------------------------|--------14-------14----x4-------------|
|-----------------------------|--------------------------------------|
|-----------------------------|--------------------------------------|

|-----------12-------------|--12-------------------------------------|
|-------12------15p12------|------15p12------12----------------------|
|--14b-----------------14--|-------------14--------------------------|
|--------------------------|------------------------x4---------------|
|--------------------------|-----------------------------------------|
|--------------------------|-----------------------------------------|

thats all of it...All riffs and lead should be correct.
Comments