Borialis - Dont Mean A Thing Chords & Tabs

 

Dont Mean A Thing Chords & Tabs

Borialis Chords & Tabs

Version: 1 Type: Tab 0 ratings
1 star 2 stars 3 stars 4 stars 5 stars
comments

Dont Mean A Thing Tab

Band: Borialis
Song: Don't Mean A Thing
Album : What You Thought You Heard

INTORO 1
[ Tab from: http://www.guitartabs.cc/tabs/b/borialis/dont_mean_a_thing_tab.html ]
E|---------------------------------------------------------|
B|---------------------------------------------------------|
G|---------------------------------------------------------|
D|--------------------------5------------------------------|
A|-888-7--888-7--888-7--888-3------------------------------|
D|-666-5--666-5--666-5--666--------------------------------|
                                                
INTRO 2   
                                            
E|---------------------------------------------------------|
B|---------------------------------------------------------|
G|---------------------------------------------------------|
D|-77--55--------------------------------------------------|
A|-55--33--7---7-5-88-5------------------------------------|
D|---------5---5-3-66-3------------------------------------|

 
Mail Me If You Have Any Coments

toxicitydoku@hotmail.com
Comments