Boots - I Never Miss A Crumb Chords & Tabs

 

I Never Miss A Crumb Chords & Tabs

Boots Chords & Tabs

Version: 1 Type: Chords 0 ratings
1 star 2 stars 3 stars 4 stars 5 stars
comments

I Never Miss A Crumb Chords

   
artist: the boots
album: snowballs and waterfalls
song: i never miss a crumb




the main riff

D-----------------------------
A----------------------5b6b5     X2
E--3-3-3-333-3-3-3---------


D----------------------5b6b5 
A-----------------------------     X1
E--3-3-3-333-3-3-3---------

D-----------------------------
A----------------------5b6b5     X1
E--3-3-3-333-3-3-3---------


[ Tab from: http://www.guitartabs.cc/tabs/b/boots/i_never_miss_a_crumb_crd.html ]
riff
i never miss a crumb
i never miss a crumb
i never miss a ...
i never miss a crumb


chorus:
G5               F5
in and up to down and out
G5               F5
down and in to the up and out
G5               F5
in and up to down and out
G5               F5                G#5
down and in to the up and out

riff
i never miss a crumb
i never miss a crumb
i never miss a ...
i never miss a crumb

   chorus


jam out to end





SCISSOR PROOF RECORDS






Comments