Boocray - Slipping Away Chords & Tabs

 

Slipping Away Chords & Tabs

Boocray Chords & Tabs

Version: 1 Type: Tab 0 ratings
1 star 2 stars 3 stars 4 stars 5 stars
comments

Slipping Away Tab

Tabbed By: Johnny Consuealos
date: 10/23/02
Song:Slipping away

INTRO(Palm Muted)
--------------------------------------------------------------------
--------------------------------------------------------------------
--------------------------------------------------------------------
-4445554444455544-4445554444455544-4445554444455544-4445554444455544 X2
-5555555555555555-0000000000000000-2222222222222222-xxxxxxxxxxxxxxxx
----------------------------------------------------3333333333333333

Intro 2nd Part , parker does the power chords and karson does the single notes
-----------------------------------------------------------------
-----------------------------------------------------------------
-77--------------------------------------------------------------
-77-5-4-----77--4-5------99-7-5------55--4-5--------------------- X4
-55---------77-----------99----------55--------------------------
------------55-----------77----------33--------------------------
VERSE
----------------------------------------|
----------------------------------------|
----------------------------------------| X 6
-----5-4-------4-5-------7-5-------4-5--| karson plays this
5-5-------------------------------------|
-----------5-5-------7-7-------3-3------|
[ Tab from: http://www.guitartabs.cc/tabs/b/boocray/slipping_away_tab.html ]
after 2 times, parker comes in with this --PALM MUTED--
---------------------------------
---------------------------------
---------------------------------
-7777----------------------------
-5555-7777-9999-5555------------- X4
------5555-7777-3333-------------

Parker does the chorus, karson does something else but its really
weird and way too complicated to tab
------------------------------------------------------------
------------------------------------------------------------
------------------------------------------------------------
-4-4-4-4--4-4-4-4--4-4-4-4--4-4-4-4-------------------------
5-5-5-5--0-0-0-0--2-2-2-2-----------------------------------
---------------------------3-3-3-3--------------------------


INtro 2nd Part only 2 times
then do chorus

Then it goes to a really hard part where everyone yells NOT ME
-55555555--55555555-77777777-33333333---------------
-77777777--55555555-77777777-33333333---------------
-77777777--66666666-88888888-44444444---------------
-77777777--77777777-99999999-55555555--------------- PLay this X4
-55555555--77777777-99999999-55555555---------------
-55555555- 55555555-77777777-33333333---------------
singing starts on the 3rd time

then do chorus riff and every one ends on a nice pretty D chord
---------------------5--------------------------------------------
---------------------7--------------------------------------------
---------------------7--------------------------------------------
---------------------7-----and let it ring!!----------------------
---------------------5--------------------------------------------
---------------------5--------------------------------------------

hey this is a really cool band by BoCray check out their website www.boocray.net
Comments