Bonnie Raitt - Something To Talk About Chords & Tabs

 

Something To Talk About Chords & Tabs

Bonnie Raitt Chords & Tabs

Version: 1 Type: Bass Tab 0 ratings
1 star 2 stars 3 stars 4 stars 5 stars
comments

Something To Talk About Bass Tab

Artist:Bonnie Raitt
Song:Something To Talk About
Tabbed By:Gary Hricewich
E-mail:snapper2001@msn.com


INTRO 2X/NO BASS
[ Tab from: http://www.guitartabs.cc/tabs/b/bonnie_raitt/something_to_talk_about_btab.html ]
                                          
 INTRO 
G----------------------------------------|
D----------------------------------------|
A----------2-4-6----6-6-4-----------4--7-|
E---4--4-4----------------6---1--2-------|
                                          
                                                                            
   VERSE           3X
G---|-----------|----|-----------------------------------------------------|
D---|*----------|---*|-----------------------------------------------------|
A---|*----------|---*|----------2-3-4-4-4-4--2-3-4-4-4-4--4-2--------------|
E---|--4--4-4-4-|-0--|-4--4-4-4-------------------------------4-4-4-4-0--4-|
                                                                            
                                                                              
                                                                  VERSE END
G----------------------------------------------------------------------------|
D----------------------------------------------------------------------------|
A--------------------------------------------2-2-2-2-2-7-7-7-7-7-6-6-6-6-6-6-|
E---1--1-1-1-1-2-2-2-2-2-1-1-1-1-1-2-2-2-2-2---------------------------------|
                                                                              
                                               
   CHORUS                     3X
G---|---------------|------------|------------|
D---|*--------------|-----------*|------------|
A---|*--------2-4-6-|-6-6-4-----*|-------4--7-|
E---|--4--4-4-------|-------6-4--|-1--2-------|
                                               
    REPEAT VERSE + CHORUS
    GUITAR SOLO[SAME AS CHORUS]
    BRIDGE/NO BASS[1ST 2 LINES] THEN:                                           
                                                                              
                                       
   
G-------------------------------------|
D-------------------------------------|
A---2--2-2-1------------1-----0-------|
E------------3-2--2-2-3----4-----0--3-|
                                       
                                              
   OUTRO                    3X   REPEAT+FADEOUT
G-----|------------------------|-------------|
D-----|*----------------------*|-------------|
A---2-|*-2-2-1------------1-2-*|-----0-------|
E-----|--------3-2--2-2-3------|--4-----0--3-|
Comments