Bonham Tracy - The One Chords & Tabs

 

The One Chords & Tabs

Bonham Tracy Chords & Tabs

Version: 1 Type: Tab 0 ratings
1 star 2 stars 3 stars 4 stars 5 stars
comments

The One Tab

   
#----------------------------------PLEASE NOTE---------------------------------#
#This file is the author's own work and represents their interpretation of the #
#song. You may only use this file for private study, scholarship, or research. #
#------------------------------------------------------------------------------#
#


From n_sane@hotmail.com Sun May  4 10:47:00 1997
Date: Sat, 05 Apr 1997 09:58:23 +0000
From: I God 
To: guitar@olga.net
Subject: TAB: The One by Tracy Bonham

===================================================================================
                                   "The One"
                                by Tracy Bonham
===================================================================================
Tabbed by I God 

Intro
         F5            G#5            F#5             x3  F5         
G#5              
E---||---------------|--------------|------------------||-----------|--------------
B---||---------------|--------------|------------------||-----------|--------------
G---||*--------------|--------------|-----------------*||-----------|--------------
D---||*--3--3--3--3-/|--6--6--6--6--|--4-----4-----4--*||--3--3--3-/|--6--6--6-----
A---||---3--3--3--3-/|--6--6--6--6--|--4-----4-----4---||--3--3--3-/|--6--6--6-----
E---||---1--1--1--1-/|--4--4--4--4--|--2-----2-----2---||--1--1--1-/|--4--4--4-----
                                                                            

Bass line throughout verses:
                                                                                
G---|-------------|---------------------|
D---|-------------|---------------------|
A---|--5-------4--|-----3------------2--|
E---|-------------|---------------------|
   1,3.I          sleep the day      away
       Giv   -    ing   you all I    can
       Rea   -    dy    to reach new lows
       Dy    -    ing   to wash   my hand
     2.Hea   -    ven   is in the    air
       Hi    -    ding  behind your  blinds
       Hea   -    ven   is right out there
       Lea   -    ving  me here be - hind

Chorus: Guitars play chrds indicated
Gtrs.    D5         A5          C5             G5 
Bass.                                                  
x3                             
G---||-----------------------|--------------------------||
D---||*----------------------|-------------------------*||
A---||*--5-----5-------------|--2---3---2---3---2------*||
E---||------------7-5-----5--|----------------------3---||
         You're the one                 you're the  one           
               That froze the   sun
               Say you love me  as you pull the trigger
[ Tab from: http://www.guitartabs.cc/tabs/b/bonham_tracy/the_one_tab.html ]
       F5       F5    E5(7th
fret)                                                                 
G--------------------|--------------------------|
D--------------------|--------------------------|
A--------------------|--------------------------|
E------1--------1----|--0--0--0--0--0--0--0--0--|
       Better today     rather than tomorrow     

(End of first chorus only)

Gtrs. |D5  A5  C5  G5|  D5  B5 
A5                                                       

Bridge:

         G                          B                    
x3                                                          
E---||---3--r--3--r--3--r--3--r--|--2--r--2--r--2--r--2---||
B---||---3--e--3--e--3--e--3--e--|--4--e--4--e--4--e--4---||
G---||*--4--s--4--s--4--s--4--s--|--4--s--4--s--4--s--4--*||
D---||*--5--t--5--t--5--t--5--t--|--4--t--4--t--4--t--4--*||
A---||---5-----5-----5-----5-----|--2-----2-----2-----2---||
E---||---3-----3-----3-----3-----|------------------------||
         So                      -                   on
               You   should  en  -  joy   the   wea - ther
         So                      -                   on

        
G                                                                                  
E---|--3--r--3--r--3--r--3--r--|
B---|--3--e--3--e--3--e--3--e--|
G---|--4--s--4--s--4--s--4--s--|
D---|--5--t--5--t--5--t--5--t--|
A---|--5-----5-----5-----5-----|
E---|--3-----3-----3-----3-----|
       You'll burn with

         F5            G#5            F#5              x8  F5         
G#5              
E---||---------------|--------------|------------------||-----------|--------------
B---||---------------|--------------|------------------||-----------|--------------
G---||*--------------|--------------|-----------------*||-----------|--------------
D---||*--3--3--3--3-/|--6--6--6--6--|--4-----4-----4--*||--3--3--3-/|--6--6--6-----
A---||---3--3--3--3-/|--6--6--6--6--|--4-----4-----4---||--3--3--3-/|--6--6--6-----
E---||---1--1--1--1-/|--4--4--4--4--|--2-----2-----2---||--1--1--1-/|--4--4--4-----
               What     you've         done
         [No lyrics]
         [No lyrics]
         [No lyrics]
 You'll  hurt           no             one x3

Song:

Intro
Verse 1
Chorus
Verse 2
Chorus
Bridge
Verse 3
Chorus

LEGEND

/ - slide up
                                 /----> [x3]
||                              /        ||
||                              |        ||
||* repeat as many times as indicated   *||
||*                                     *||
||                                       ||
||                                       ||



Not much to it. There are some faint background guitars i
didn't tab out. If anyone wants to tab 'em, please mail me.
Of course I didn't tab the violin either.

Send questions/comments to (n_sane@hotmail.com)
Comments