Boney M - Daddy Cool Chords & Tabs

 

Daddy Cool Chords & Tabs

Boney M Chords & Tabs

Version: 4 Type: Bass Tab 0 ratings
1 star 2 stars 3 stars 4 stars 5 stars
comments

Daddy Cool Bass Tab

-------------------------------------------------------------------
			DADDY COOL - Boney M.
-------------------------------------------------------------------

tabbed by: stoa
e-mail: m.stein@gmx.at


*Intro:

G |-----------------|-----------------|
D |-----------6-5---|-----------------|
A |-8-8-8-8-8-----8-|-6-6-6-6-6---6-7-|
E |-----------------|-----------8-----|

G |-----------------|-----------------|
D |-----------6-5---|-----------------|
A |-8-8-8-8-8-----8-|-6-6-6-6-6---6-7-|
E |-----------------|-----------8-----|


*Repeat abaout 7 million times:
[ Tab from: http://www.guitartabs.cc/tabs/b/boney_m/daddy_cool_btab_ver_4.html ]
G |-----------------|-----------------|
D |-3-3-3-3-3-6-5---|-----------------|
A |---------------8-|-6-6-6-6-6---6-5-|
E |-----------------|-----------7-----|

G |-----------------|-----------------|
D |-------------1-2-|-3-3-3-3-3---1-2-|
A |-3-3-3-3-3-3-----|-----------3-----|
E |-----------------|-----------------|


*Bridge 1:

G |-----------------|-----------------|
D |-3-------1-------|-----------------|
A |-----------------|-4---------------|
E |-----------------|-----------------|

G |-----------------|-----------------|-----------------|
D |-3---------------|-1---------------|-----------------|
A |-----------------|-----------------|-4---------------|
E |-----------------|-----------------|-----------------|


*Bridge 2 = Intro
Comments