Boney M - Daddy Cool Chords & Tabs

 

Daddy Cool Chords & Tabs

Boney M Chords & Tabs

Version: 1 Type: Bass Tab 0 ratings
1 star 2 stars 3 stars 4 stars 5 stars
comments

Daddy Cool Bass Tab

   
Author/Artist: Boney M		|
Title: Daddy Cool		|
Transcribed by: Electric	|
Email: electric@x-treme.gr	|
--------------------------------|

        Song: Daddy Cool
      Artist: Boney M
Corrected by: Ylle
      E-mail: ylle@absinthen.dk
      Tuning: E A D G


The last guy had something going, but he's sure misses alot, that I think people would like to play.
Here is how it should be played.


Intro (0:11 - 0:42):
G|-------------------------------------------|
D|-------------------------------------------|
A|---8-8-8-8-8--11-10-8--6-6-6-6-6--3-6-7----|
E|-------------------------------------------|
                   
                                                           
Then comes (0:42 - 2:14):
G|--------------------------------------------------------------------------|
D|--------------------------------------------------------------------------|
A|---8-8-8-8-8--11-10-8--6-6-6-6-6--3-6-4--3-3-3-3-3-3-3/8-8-8-8-8-8--3-6---|
E|--------------------------------------------------------------------------|

[ Tab from: http://www.guitartabs.cc/tabs/b/boney_m/daddy_cool_btab.html ]
Then (2:14 - 2:24):
G|------------------------------------|
D|------------------------------------|
A|---8--6--4-----8-----6-----4--3-6---|
E|------------------------------------|


And for a short period (2:24 - 2:39):
G|--------------------------------------------------------------------------|
D|--------------------------------------------------------------------------|
A|---8-8-8-8-8--11-10-8--6-6-6-6-6--3-6-4--3-3-3-3-3-3-3/8-8-8-8-8-8--3-6---|
E|--------------------------------------------------------------------------|


And the again for a short period (2:39 - 2:55):
G|-------------------------------------------|
D|-------------------------------------------|
A|---8-8-8-8-8--11-10-8--6-6-6-6-6--3-6-7----|
E|-------------------------------------------|


And last (2:39 - End):
G|-----------------------------------------------------------------------------|
D|-----------------------------------------------------------------------------|
A|---8-8-8-8-8--11-10-8--6-6-6-6-6--3-6-4--3-3-3-3-3-3-3/8-8-8-8-8-8--3-6--8---|
E|-----------------------------------------------------------------------------|


This is a very easy song, just don't know why some people haven't tabbed it properly.
I think this tab is almost 100% correct, but if you have some corrections please let me know.


Jesper aka. Ylle
Comments