Bone Cold - The Skys On Fire Chords & Tabs

 

The Skys On Fire Chords & Tabs

Bone Cold Chords & Tabs

Version: 1 Type: Tab 1 rating
1 star 2 stars 3 stars 4 stars 5 stars
comments

The Skys On Fire Tab

   
intro
--------------------------------------------------------------------------------------
--------------------------------------------------------------------------------------
--------------------------------------------------------------------------------------
--------------------------------------------------------------------------------------
--------------------------------------------------------------------------------------
--0-3-6-5-4-9-8-7-8-5-6-5--1-2-3-6-5-4-9-8-5-1-2-3-5-4-6-5-4-5-7-8-5-2-1-2-3-2-2-2-2-2


--0-4-6-8-2-5-8-7-4-6-5-2-1-5-9-5-5-4-5-6--8-2-4-5-6-5-9-8-7-8-5-2-3-2-1-4-7-5-6-6-9-8-
---------------------------------------------------------------------------------------
---------------------------------------------------------------------------------------
---------------------------------------------------------------------------------------
---------------------------------------------------------------------------------------
---------------------------------------------------------------------------------------

chords
G D C E
G D C Am E
Em F F# 
G D E G C#

[ Tab from: http://www.guitartabs.cc/tabs/b/bone_cold/the_skys_on_fire_tab.html ]
chorus                                                                       play 3 times
---------------------------------------------------------------------------------------
---------------------------------------------------------------------------------------
--4-----------5------------------------------------------------------------------------
--4-----2-----5-----2----4---5----7----------------------------------------------------
--2-----2-----3-----2----4---5----7----------------------------------------------------
--------0-----------0----2---3----5----------------------------------------------------


solo
--20-20-20-20-22-22-24--24--22-------19-17-15-----------12-11-9-------11---20-21-24------
-------------------------------20-24----------15-14-12-------------11----------------24--
----------------------------------------------------------------11-----------------------
-----------------------------------------------------------------------------------------
-----------------------------------------------------------------------------------------
-----------------------------------------------------------------------------------------


--22-24--21------------------------19--21----21-----20s---24-----------------------------
------------20--21--------------19--------22---------------------------------------------
--------------------24--20--17------------------22---------------------------------------
-----------------------------------------------------------------------------------------
-----------------------------------------------------------------------------------------
-----------------------------------------------------------------------------------------

Comments