Bon Jovi - You Had Me From Hello Chords & Tabs

 

You Had Me From Hello Chords & Tabs

Bon Jovi Chords & Tabs

Version: 3 Type: Tab 0 ratings
1 star 2 stars 3 stars 4 stars 5 stars
comments

You Had Me From Hello Tab

   
##################################################################################
# This file is the author's own work and represents their interpretation of the  #
# song. You may only use this file for private study, scholarship, or research.  #
##################################################################################

YOU HAD ME FROM HELLO 
----------------------
A* x
   5
   2
   2
   0
   X


     G            A          Bm                
e|------------5--|-------5--|-----5-------------
B|---2--(3)------|-2--------|-2---3---3---------
G|---------------|----------|-----------2-------
D|---------------|----------|-------------2-----
A|---------------|-0--------|-2-------------2---
E|---3-----------|----------|-------------------

     G                      A
e|------------5----------|---------------------
B|---2--(3)-------2--3---|--2---3--2/3/2-------
G|----------------0--0---|--2-------------2----
D|-----------------------|-----------------2---
A|-----------------------|--0---------------0--
E|---3------------3------|---------------------

[ Tab from: http://www.guitartabs.cc/tabs/b/bon_jovi/you_had_me_from_hello_tab_ver_3.html ]
G            A          Bm                
e|------------5--|-------5--|-----5-------------
B|---2--(3)------|-2--------|-2---3---3---------
G|---------------|----------|-----------2-------
D|---------------|----------|-------------2-----
A|---------------|-0--------|-2-------------2---
E|---3-----------|----------|-------------------

     G                      A
e|------------5----------|---------------------
B|---2--(3)-------2--3---|--2---3--2/3/2-------
G|----------------0--0---|--2-------------2----
D|-----------------------|-----------------2---
A|-----------------------|--0---------------0--
E|---3------------3------|---------------------

G            A          Bm                
e|------------5--|-------5--|-----5-------------
B|---2--(3)------|-2--------|-2---3---3---------
G|---------------|----------|-----------2-------
D|---------------|----------|-------------2-----
A|---------------|-0--------|-2-------------2---
E|---3-----------|----------|-------------------
                             From Hello...
     G                      A       Dsus2/F#
e|------------5----------|------|----------------
B|---2--(3)-------2--3---|--2---|--------3-------
G|----------------0--0---|--2---|-------2--------
D|-----------------------|------|------0---------
A|-----------------------|--0---|-----0----------
E|---3------------3------|------|----2-----------

-----------------------------------
Transcribed by Felipe Fontoura
bonj0vi@yahoo.com.br
ICQ 60257367
listen me singing this song
http://www.drycounty.com/downloads/mp3/Felipe-YouHadMeFromHello.mp3
Comments