Bon Jovi - You Give Love A Bad Name Chords & Tabs

 

You Give Love A Bad Name Chords & Tabs

Bon Jovi Chords & Tabs

Version: 1 Type: Bass Tab 0 ratings
1 star 2 stars 3 stars 4 stars 5 stars
comments

You Give Love A Bad Name Bass Tab

Bon Jovi - "You Give Love A Bad Name" - Bass Tab

common time(4/4)
standard tuning(EADG)

Intro:

|-------------|---------|-------------|-------------|
|-------------|---------|-------------|-1-----------|
|-3-r-----1-3-|-1-1-3---|-----1-----1-|---3-----1-2-|
|-----4-------|---------|-4-r-----3---|-------3-----|
  1 2 & 3 4 &   1 2 3 4   1 2 & 3 4 &   1 2 3 & 4 &

|-------------|---------|-----------|---------|
|-------------|---------|-----------|---------|
|-3-r-----1-3-|-1-1-3---|-----1-----|---------|
|-----4-------|---------|-4-r-------|---------|
  1 2 & 3 4 &   1 2 3 4   1 2 & 3 4   1 2 3 4 

Verse:

|------------------|----------------|
|*---------1-1-----|---------1-1---*|
|*-3---1-3-----3-1-|-3---1-3-----3-*|
|----3-------------|---3------------|
   1 & 2 & 3 & 4 &   1 & 2 & 3 & 4

|-----------------|-------------|-----------------|
|-----------------|-------------|---------1-1-----|
|-----------------|---------1-2-|-3---1-3-----3-1-|
|-1-1-1-1-1-1-1-1-|-1-1-1-1-----|---3-------------|
  1 & 2 & 3 & 4 &   1 & 2 & 3 4   1 & 2 & 3 & 4 &

|------------8-8-----|-----------------|-----------------|
|-10----8-10-----10/-|-----------------|-----------------|
|----10--------------|-1-1-1-1-1-1-1-1-|-1-1-1-1-1-3-----|
|--------------------|-----------------|-------------3-1-|
  1  &  2 &  3 & 4     1 & 2 & 3 & 4 &   1 & 2 & 3 & 4 &

|-----------------|-----------------|
|-----------------|-----------------|
|-----------------|-----------------|
|-1-1-1-1-1-1-1-1-|-3-3-3-3-3-3-3-3-|
  1 & 2 & 3 & 4 &   1 & 2 & 3 & 4 &

1st Chorus:

|-------------|---------|-------------|-----3-3-5-5-|
|-------------|---------|-------------|-1-----------|
|-3-r-----1-3-|-1-1-3---|-----1-----1-|---3---------|
|-----4-------|---------|-4-r-----3---|-------------|
  1 2 & 3 4 &   1 2 3 4   1 2 & 3 4 &   1 2 3 & 4 &

|-------------|-----------|-------------|-------------|
|-------------|-----------|-------------|-1-----------|
|-3-r-----1-3-|-1-1-3-3-1-|-----1-----1-|---3---3-1-1-|
|-----4-------|-----------|-4-r-----3---|-------------|
  1 2 & 3 4 &   1 2 3 4 &   1 2 & 3 4 &   1 2 3 & 4 &
[ Tab from: http://www.guitartabs.cc/tabs/b/bon_jovi/you_give_love_a_bad_name_btab.html ]
|-----------|---------|-----|
|-----------|---------|-----|
|-----1-----|---------|-----|
|-4-r-------|---------|-----|
  1 2 & 3 4   1 2 3 4   1 2

2nd Chorus:

|-------------|---------|-------------|-----3-3-5-5-|
|-------------|---------|-------------|-1-----------|
|-3-r-----1-3-|-1-1-3---|-----1-----1-|---3---------|
|-----4-------|---------|-4-r-----3---|-------------|
  1 2 & 3 4 &   1 2 3 4   1 2 & 3 4 &   1 2 3 & 4 &

|-------------|-----------|-------------|-------------|
|-------------|-----------|-------------|-1-----------|
|-3-r-----1-3-|-1-1-3-3-1-|-----1-----1-|---3---3-1-1-|
|-----4-------|-----------|-4-r-----3---|-------------|
  1 2 & 3 4 &   1 2 3 4 &   1 2 & 3 4 &   1 2 3 & 4 &

|-----------|---------|
|-----------|---------|
|-----1-----|---------|
|-4-r-------|---------|
  1 2 & 3 4   1 2 3 4

Solo:

|-------------|---------|-------------|-----3-3-5-5-|
|-------------|---------|-------------|-1-----------|
|-3-r-----1-3-|-1-1-3---|2-3---1----1-|---3---------|
|-----4-------|---------|----4-r--3---|-------------|
  1 2 & 3 4 &   1 2 3 4   1 2 & 3 4 &   1 2 3 & 4 &

|-------------|-----------|-----------|-----------------|
|-------------|-----------|-----------|-----------------|
|-3-r-----1-3-|-1-1-3-3-1-|--3--------|-----------------|
|-----4-------|-----------|---r-4-----|-3-3-3-3-3-3-3-3-|
  1 2 & 3 4 &   1 2 3 4 &   1 2 & 3 4   1 & 2 & 3 & 4 &

				  
|-----------------|-----------|-5-5-5-5-5-5-5-5-5-5-5-|
|-----------------|*---------*|-----------------------|
|-----------------|*-r-r-r-r-*|-----------------------|
|-3-3-3-3-3-3-3-3-|-----------|-----------------------|
  1 & 2 & 3 & 4 &    1 2 3 4    1 & a 2 & 3 e & a 4 &

End:

|-------------|---------|-------------|-----3-3-5-5-|
|-------------|---------|-------------|-1-----------|
|-3-r-----1-3-|-1-1-3---|-----1-----1-|---3---------|
|-----4-------|---------|-4-r-----3---|-------------|
  1 2 & 3 4 &   1 2 3 4   1 2 & 3 4 &   1 2 3 & 4 &

|-------------|-----------|-------------|-------------|
|-------------|-----------|-------------|-1-----------| (fade-out)
|-3-r-----1-3-|-1-1-3-3-1-|-----1-----1-|---3-----1-2-|
|-----4-------|-----------|-4-r-----3---|-------3-----|
  1 2 & 3 4 &   1 2 3 4 &   1 2 & 3 4 &   1 2 3 & 4 &

Modified by : Christian Cl├╝sserath
E-mail: ccluesserath@web.de
Orignial By: Johari Taylor
E-mail: viking@powerup.com.au  

Comments