Bon Jovi - Who Says You Cant Go Home Chords & Tabs

 

Who Says You Cant Go Home Chords & Tabs

Bon Jovi Chords & Tabs

Version: 1 Type: Tab

Who Says You Cant Go Home Tab

   
intro: Strum with Clean Tone.
       G5            Cadd9      A7sus4    Cadd9
E--------3----------|---3-------|---3------|---3------3----3----3--|
B--------3----------|---3-------|---3------|---3------3----3----3--|
G--------0----------|---0-------|---0------|---0------0----0----0--|
D--------x----------|---2-------|---2------|---x------x----x----x--|
A--------2----------|---3-------|---0------|---2------2----2----2--|
E--------3----------|-----------|----------|---3------3----3----3--|
[ Tab from: http://www.guitartabs.cc/tabs/b/bon_jovi/who_says_you_cant_go_home_tab.html ]
E----------3-----3---------------------------|
B--------3----------3h5---3--------3---------|
G---4h5-----------------------5--------------|   (x2)
D--------------------------------------------|
A--------------------------------------------|
E--------------------------------------------|

i dont have time to tab the whole song. i will in time.
its an easy song to play the pattern of the vearse and chours is
    G5    Cadd9     A7sus7    Cadd9
    G5    Cadd9     D   Dsus4   D
the intro riff is also played over the chours