Bon Jovi - We Rule The Night Chords & Tabs

 

We Rule The Night Chords & Tabs

Bon Jovi Chords & Tabs

Version: 1 Type: Tab 0 ratings
1 star 2 stars 3 stars 4 stars 5 stars
comments

We Rule The Night Tab

I Gotta say this is a great intro, one of the best riffs i've heard in  a while. Great
box set, hopefully you'l like the tab, i've not submitted in a while but i've been
workin a lot on mi guiar so hopefuly it'l b about 100% right.

---------------------------------------------------------------------------|
---------------------------------------------------------------------------|
----------2-3---2-----------------2-3---2----------------------------------|
--0-2-3-5-----5---3-5-2-3-0-2-3-5-----5---3-5-2-3--------2-3-5-2-3---2-----|
---------------------------------------------------1-3-5-----------5---3-5-|
---------------------------------------------------------------------------|
[ Tab from: http://www.guitartabs.cc/tabs/b/bon_jovi/we_rule_the_night_tab.html ]
--------------------------------------------------------------------------|
--------------------------------------------------------------------------|
-----------------------------------2-----------------------2--------------|
-------2-3-5-2-3---2---------2-3-5---3-5-2-3---2-----2-3-5---3-5-2-3---2--|
-1-3-5-----------5---3-5-3-5-----------------5---3-5-----------------5----|
--------------------------------------------------------------------------|

----------------------------------------|
----------------------------------------|
---------2-3---2----------3----5--------|
-0-2-3-5-----5---3-5-2-3--3----5--------|
--------------------------1----3--------|
----------------------------------------|

Thats all there is to it
Matt
Comments