Bon Jovi - Wanted Dead Or Alive Chords & Tabs

 

Wanted Dead Or Alive Chords & Tabs

Bon Jovi Chords & Tabs

Version: 8 Type: Tab 0 ratings
1 star 2 stars 3 stars 4 stars 5 stars
comments

Wanted Dead Or Alive Tab

This is my first tab. I think most or all of it is correct. Please rate it for me,thanks.
[ Tab from: http://www.guitartabs.cc/tabs/b/bon_jovi/wanted_dead_or_alive_tab_ver_8.html ]
|----13-------12-----10------8------5------3----3-1-1-|
|-----------------------------------------------------|
|--14--14---12--12-10--10---9--9---5--5---4--4--------|
|-0------0-0------0------0-0----0-0----0--------------|
|-----------------------------------------------------|
|-----------------------------------------------------| Repeat x2

|---------------1---------------------1---------------------|
|-----------------3---------------------3-------------------|
|-------------------2---------------------2-----------------|
|--------0-2b-0----------------0-2b-0----------------0-2b-0-|
|-0-0-2b----------------0-0-2b----------------0-0-2b--------|
|-----------------------------------------------------------|
Comments